  0
SECTION
  2
HEADER
  9
$ACADVER
  1
AC1015
  9
$ACADMAINTVER
 70
     6
  9
$DWGCODEPAGE
  3
ANSI_932
  9
$INSBASE
 10
0.0
 20
0.0
 30
0.0
  9
$EXTMIN
 10
180.770189
 20
8.856651
 30
1.000000E+20
  9
$EXTMAX
 10
900.174167
 20
674.27116
 30
-1.000000E+20
  9
$LIMMIN
 10
180.770189
 20
8.856651
  9
$LIMMAX
 10
900.174167
 20
674.27116
  9
$ORTHOMODE
 70
     0
  9
$REGENMODE
 70
     1
  9
$FILLMODE
 70
     1
  9
$QTEXTMODE
 70
     0
  9
$MIRRTEXT
 70
     1
  9
$LTSCALE
 40
1.0
  9
$ATTMODE
 70
     1
  9
$TEXTSIZE
 40
0.2
  9
$TRACEWID
 40
0.05
  9
$TEXTSTYLE
  7
Standard
  9
$CLAYER
  8
0
  9
$CELTYPE
  6
Continuous
  9
$CECOLOR
 62
   256
  9
$CELTSCALE
 40
1.0
  9
$DISPSILH
 70
     0
  9
$DIMSCALE
 40
1.0
  9
$DIMASZ
 40
0.18
  9
$DIMEXO
 40
0.0625
  9
$DIMDLI
 40
0.38
  9
$DIMRND
 40
0.0
  9
$DIMDLE
 40
0.0
  9
$DIMEXE
 40
0.18
  9
$DIMTP
 40
0.0
  9
$DIMTM
 40
0.0
  9
$DIMTXT
 40
0.18
  9
$DIMCEN
 40
0.09
  9
$DIMTSZ
 40
0.0
  9
$DIMTOL
 70
     0
  9
$DIMLIM
 70
     0
  9
$DIMTIH
 70
     1
  9
$DIMTOH
 70
     1
  9
$DIMSE1
 70
     0
  9
$DIMSE2
 70
     0
  9
$DIMTAD
 70
     0
  9
$DIMZIN
 70
     0
  9
$DIMBLK
  1

  9
$DIMASO
 70
     1
  9
$DIMSHO
 70
     1
  9
$DIMPOST
  1

  9
$DIMAPOST
  1

  9
$DIMALT
 70
     0
  9
$DIMALTD
 70
     2
  9
$DIMALTF
 40
25.4
  9
$DIMLFAC
 40
1.0
  9
$DIMTOFL
 70
     0
  9
$DIMTVP
 40
0.0
  9
$DIMTIX
 70
     0
  9
$DIMSOXD
 70
     0
  9
$DIMSAH
 70
     0
  9
$DIMBLK1
  1

  9
$DIMBLK2
  1

  9
$DIMSTYLE
  2
Standard
  9
$DIMCLRD
 70
     0
  9
$DIMCLRE
 70
     0
  9
$DIMCLRT
 70
     0
  9
$DIMTFAC
 40
1.0
  9
$DIMGAP
 40
0.09
  9
$DIMJUST
 70
     0
  9
$DIMSD1
 70
     0
  9
$DIMSD2
 70
     0
  9
$DIMTOLJ
 70
     1
  9
$DIMTZIN
 70
     0
  9
$DIMALTZ
 70
     0
  9
$DIMALTTZ
 70
     0
  9
$DIMUPT
 70
     0
  9
$DIMDEC
 70
     4
  9
$DIMTDEC
 70
     4
  9
$DIMALTU
 70
     2
  9
$DIMALTTD
 70
     2
  9
$DIMTXSTY
  7
Standard
  9
$DIMAUNIT
 70
     0
  9
$DIMADEC
 70
     0
  9
$DIMALTRND
 40
0.0
  9
$DIMAZIN
 70
     0
  9
$DIMDSEP
 70
     0
  9
$DIMATFIT
 70
     3
  9
$DIMFRAC
 70
     0
  9
$DIMLDRBLK
  1

  9
$DIMLUNIT
 70
     2
  9
$DIMLWD
 70
     0
  9
$DIMLWE
 70
     0
  9
$DIMTMOVE
 70
     0
  9
$LUNITS
 70
     2
  9
$LUPREC
 70
     4
  9
$SKETCHINC
 40
0.1
  9
$FILLETRAD
 40
0.0
  9
$AUNITS
 70
     0
  9
$AUPREC
 70
     0
  9
$MENU
  1
acad
  9
$ELEVATION
 40
0.0
  9
$PELEVATION
 40
0.0
  9
$THICKNESS
 40
0.0
  9
$LIMCHECK
 70
     0
  9
$CHAMFERA
 40
0.0
  9
$CHAMFERB
 40
0.0
  9
$CHAMFERC
 40
0.0
  9
$CHAMFERD
 40
0.0
  9
$SKPOLY
 70
     0
  9
$TDCREATE
 40
0.000000000
  9
$TDUCREATE
 40
0.000000000
  9
$TDUPDATE
 40
0.000000000
  9
$TDUUPDATE
 40
0.000000000
  9
$TDINDWG
 40
0.0000000000
  9
$TDUSRTIMER
 40
0.0000000000
  9
$USRTIMER
 70
     1
  9
$ANGBASE
 50
0.0
  9
$ANGDIR
 70
     0
  9
$PDMODE
 70
     0
  9
$PDSIZE
 40
0.0
  9
$PLINEWID
 40
0.0
  9
$SPLFRAME
 70
     0
  9
$SPLINETYPE
 70
     6
  9
$SPLINESEGS
 70
     8
  9
$HANDSEED
  5
5F7
  9
$SURFTAB1
 70
     6
  9
$SURFTAB2
 70
     6
  9
$SURFTYPE
 70
     6
  9
$SURFU
 70
     6
  9
$SURFV
 70
     6
  9
$UCSBASE
  2

  9
$UCSNAME
  2

  9
$UCSORG
 10
0.0
 20
0.0
 30
0.0
  9
$UCSXDIR
 10
1.0
 20
0.0
 30
0.0
  9
$UCSYDIR
 10
0.0
 20
1.0
 30
0.0
  9
$UCSORTHOREF
  2

  9
$UCSORTHOVIEW
 70
     0
  9
$UCSORGTOP
 10
0.0
 20
0.0
 30
0.0
  9
$UCSORGBOTTOM
 10
0.0
 20
0.0
 30
0.0
  9
$UCSORGLEFT
 10
0.0
 20
0.0
 30
0.0
  9
$UCSORGRIGHT
 10
0.0
 20
0.0
 30
0.0
  9
$UCSORGFRONT
 10
0.0
 20
0.0
 30
0.0
  9
$UCSORGBACK
 10
0.0
 20
0.0
 30
0.0
  9
$PUCSBASE
  2

  9
$PUCSNAME
  2

  9
$PUCSORG
 10
0.0
 20
0.0
 30
0.0
  9
$PUCSXDIR
 10
1.0
 20
0.0
 30
0.0
  9
$PUCSYDIR
 10
0.0
 20
1.0
 30
0.0
  9
$PUCSORTHOREF
  2

  9
$PUCSORTHOVIEW
 70
     0
  9
$PUCSORGTOP
 10
0.0
 20
0.0
 30
0.0
  9
$PUCSORGBOTTOM
 10
0.0
 20
0.0
 30
0.0
  9
$PUCSORGLEFT
 10
0.0
 20
0.0
 30
0.0
  9
$PUCSORGRIGHT
 10
0.0
 20
0.0
 30
0.0
  9
$PUCSORGFRONT
 10
0.0
 20
0.0
 30
0.0
  9
$PUCSORGBACK
 10
0.0
 20
0.0
 30
0.0
  9
$USERI1
 70
     0
  9
$USERI2
 70
     0
  9
$USERI3
 70
     0
  9
$USERI4
 70
     0
  9
$USERI5
 70
     0
  9
$USERR1
 40
0.0
  9
$USERR2
 40
0.0
  9
$USERR3
 40
0.0
  9
$USERR4
 40
0.0
  9
$USERR5
 40
0.0
  9
$WORLDVIEW
 70
     1
  9
$SHADEDGE
 70
     3
  9
$SHADEDIF
 70
    70
  9
$TILEMODE
 70
     1
  9
$MAXACTVP
 70
    16
  9
$PINSBASE
 10
0.0
 20
0.0
 30
0.0
  9
$PLIMCHECK
 70
     0
  9
$PEXTMIN
 10
1.000000E+20
 20
1.000000E+20
 30
1.000000E+20
  9
$PEXTMAX
 10
-1.000000E+20
 20
-1.000000E+20
 30
-1.000000E+20
  9
$PLIMMIN
 10
0.0
 20
0.0
  9
$PLIMMAX
 10
12.0
 20
9.0
  9
$UNITMODE
 70
     0
  9
$VISRETAIN
 70
     0
  9
$PLINEGEN
 70
     1
  9
$PSLTSCALE
 70
     0
  9
$TREEDEPTH
 70
  3020
  9
$CMLSTYLE
  2
Standard
  9
$CMLJUST
 70
     0
  9
$CMLSCALE
 40
1.0
  9
$PROXYGRAPHICS
 70
     0
  9
$MEASUREMENT
 70
     0
  9
$CELWEIGHT
370
     0
  9
$ENDCAPS
280
     0
  9
$JOINSTYLE
280
     0
  9
$LWDISPLAY
290
     0
  9
$INSUNITS
 70
     0
  9
$HYPERLINKBASE
  1

  9
$XEDIT
290
     1
  9
$CEPSNTYPE
380
     0
  9
$PSTYLEMODE
290
     1
  9
$FINGERPRINTGUID
  2

  9
$VERSIONGUID
  2

  9
$EXTNAMES
290
     1
  9
$PSVPSCALE
 40
0.0
  0
ENDSEC
  0
SECTION
  2
CLASSES
  0
CLASS
  1
LWPOLYLINE
  2
AcDbPolyline
  3
"AutoCAD"
 90
        0
280
     0
281
     1
  0
CLASS
  1
IMAGE
  2
AcDbRasterImage
  3
ISM
 90
      127
280
     0
281
     1
  0
CLASS
  1
OLE2FRAME
  2
AcDbOle2Frame
  3
""
 90
        0
280
     0
281
     1
  0
CLASS
  1
HATCH
  2
AcDbHatch
  3
"ACAD_SEDONA"
 90
        0
280
     0
281
     1
  0
CLASS
  1
DICTIONARYVAR
  2
AcDbDictionaryVar
  3
"AutoCAD"
 90
        0
280
     0
281
     0
  0
CLASS
  1
RASTERVARIABLES
  2
AcDbRasterVariables
  3
ISM
 90
        0
280
     0
281
     0
  0
CLASS
  1
IMAGEDEF
  2
AcDbRasterImageDef
  3
ISM
 90
        0
280
     0
281
     0
  0
CLASS
  1
IMAGEDEF_REACTOR
  2
AcDbRasterImageDefReactor
  3
ISM
 90
        1
280
     0
281
     0
  0
CLASS
  1
IDBUFFER
  2
AcDbIdBuffer
  3
"Acad"
 90
        0
280
     0
281
     0
  0
CLASS
  1
SPATIAL_FILTER
  2
AcDbSpatialFilter
  3
"Acad"
 90
        0
280
     0
281
     0
  0
CLASS
  1
XRECORD
  2
AcDbXrecord
  3
"<Built In>"
 90
        0
280
     0
281
     0
  0
CLASS
  1
SORTENTSTABLE
  2
AcDbSortentsTable
  3
"AutoCAD"
 90
        0
280
     0
281
     0
  0
CLASS
  1
LAYER_INDEX
  2
AcDbLayerIndex
  3
"Acad"
 90
        0
280
     0
281
     0
  0
CLASS
  1
SPATIAL_INDEX
  2
AcDbSpatialIndex
  3
"Acad"
 90
        0
280
     0
281
     0
  0
CLASS
  1
OBJECT_PTR
  2
CAseDLPNTableRecord
  3
"ASE-LPNTableRecord"
 90
        1
280
     0
281
     0
  0
CLASS
  1
LAYOUT
  2
AcDbLayout
  3
"AutoCAD 2000"
 90
        1
280
     0
281
     0
  0
CLASS
  1
PLOTSETTINGS
  2
AcDbPlotSettings
  3
"AutoCAD 2000"
 90
        1
280
     0
281
     0
  0
CLASS
  1
ACDBDICTIONARYWDFLT
  2
AcDbDictionaryWithDefault
  3
"AutoCAD 2000"
 90
        1
280
     0
281
     0
  0
CLASS
  1
ACDBPLACEHOLDER
  2
AcDbPlaceHolder
  3
"AutoCAD 2000"
 90
        1
280
     0
281
     0
  0
CLASS
  1
VBA_PROJECT
  2
AcDbVbaProject
  3
"acadvba"
 90
        1
280
     0
281
     0
  0
CLASS
  1
WIPEOUT
  2
AcDbWipeout
  3
WipeOut|AutoCAD Express Tool|expresstools@autodesk.com
 90
      127
280
     0
281
     1
  0
CLASS
  1
WIPEOUTVARIABLES
  2
AcDbWipeoutVariables
  3
WipeOut|AutoCAD Express Tool|expresstools@autodesk.com
 90
        0
280
     0
281
     0
  0
CLASS
  1
RTEXT
  2
RText
  3
RText|AutoCAD Express Tool|expresstools@autodesk.com
 90
        0
280
     0
281
     1
  0
CLASS
  1
ARCALIGNEDTEXT
  2
AcDbArcAlignedText
  3
ATEXT|AutoCAD Express Tool|expresstools@autodesk.com
 90
        0
280
     0
281
     1
  0
ENDSEC
  0
SECTION
  2
TABLES
  0
TABLE
  2
VPORT
  5
7
100
AcDbSymbolTable
 70
     1
  0
VPORT
  5
15
100
AcDbSymbolTableRecord
100
AcDbViewportTableRecord
  2
*ACTIVE
 70
     0
 10
0.0
 20
0.0
 11
1.0
 21
1.0
 12
6.591288
 22
4.579184
 13
0.0
 23
0.0
 14
1.0
 24
1.0
 15
0.0
 25
0.0
 16
0.0
 26
0.0
 36
1.0
 17
0.0
 27
0.0
 37
0.0
 40
9.158369
 41
0.688564
 42
50.0
 43
0.0
 44
0.0
 50
0.0
 51
0.0
 71
     0
 72
   100
 73
     1
 74
     1
 75
     0
 76
     0
 77
     0
 78
     0
281
     0
 65
     0
110
0.0
120
0.0
130
0.0
111
1.0
121
0.0
131
0.0
112
0.0
122
1.0
132
0.0
345
0
346
0
 79
     0
146
0.0
  0
ENDTAB
  0
TABLE
  2
LTYPE
  5
4
100
AcDbSymbolTable
 70
     3
  0
LTYPE
  5
11
100
AcDbSymbolTableRecord
100
AcDbLinetypeTableRecord
  2
ByBlock
 70
    64
  3

 72
    65
 73
     0
 40
0.0
  0
LTYPE
  5
12
100
AcDbSymbolTableRecord
100
AcDbLinetypeTableRecord
  2
ByLayer
 70
    64
  3

 72
    65
 73
     0
 40
0.0
  0
LTYPE
  5
13
100
AcDbSymbolTableRecord
100
AcDbLinetypeTableRecord
  2
Continuous
 70
    64
  3
Solid line
 72
    65
 73
     0
 40
0.0
  0
ENDTAB
  0
TABLE
  2
LAYER
  5
2
100
AcDbSymbolTable
 70
     2
  0
LAYER
  5
14
100
AcDbSymbolTableRecord
100
AcDbLayerTableRecord
  2
0
 70
     0
 62
     7
  6
Continuous
290
     1
370
    -3
390
1D
  0
LAYER
  5
28
100
AcDbSymbolTableRecord
100
AcDbLayerTableRecord
  2
LAYER_1
 70
     0
 62
   160
  6
Continuous
290
     1
370
    -3
390
1F
  0
ENDTAB
  0
TABLE
  2
STYLE
  5
3
100
AcDbSymbolTable
 70
     5
  0
STYLE
  5
17
100
AcDbSymbolTableRecord
100
AcDbTextStyleTableRecord
  2
Standard
 70
     0
 40
0.0
 41
1.0
 50
0.0
 71
     0
 42
0.0
  3
txt
  4

  0
STYLE
  5
24
100
AcDbSymbolTableRecord
100
AcDbTextStyleTableRecord
  2
STD
 70
     0
 40
0.0
 41
1.0
 50
0.0
 71
     0
 42
0.0
  3
txt
  4

  0
STYLE
  5
25
100
AcDbSymbolTableRecord
100
AcDbTextStyleTableRecord
  2
TATESTD
 70
     4
 40
0.0
 41
1.0
 50
0.0
 71
     0
 42
0.0
  3
txt
  4

  0
STYLE
  5
26
100
AcDbSymbolTableRecord
100
AcDbTextStyleTableRecord
  2
KANJISTD
 70
     0
 40
0.0
 41
1.0
 50
0.0
 71
     0
 42
0.0
  3
txt
  4
extfont
  0
STYLE
  5
27
100
AcDbSymbolTableRecord
100
AcDbTextStyleTableRecord
  2
KANJITATE
 70
     4
 40
0.0
 41
1.0
 50
0.0
 71
     0
 42
0.0
  3
txt
  4
extfont
  0
ENDTAB
  0
TABLE
  2
VIEW
  5
5
100
AcDbSymbolTable
 70
     0
  0
ENDTAB
  0
TABLE
  2
UCS
  5
6
100
AcDbSymbolTable
 70
     0
  0
ENDTAB
  0
TABLE
  2
APPID
  5
8
100
AcDbSymbolTable
 70
     1
  0
APPID
  5
16
100
AcDbSymbolTableRecord
100
AcDbRegAppTableRecord
  2
ACAD
 70
     0
  0
ENDTAB
  0
TABLE
  2
DIMSTYLE
  5
9
100
AcDbSymbolTable
 70
     1
100
AcDbDimStyleTable
 71
     0
  0
DIMSTYLE
105
18
100
AcDbSymbolTableRecord
100
AcDbDimStyleTableRecord
  2
Standard
 70
     0
  3

  4

 40
1.0
 41
0.18
 42
0.0625
 43
0.38
 44
0.18
 45
0.0
 46
0.0
 47
0.0
 48
0.0
 71
     0
 72
     0
 73
     1
 74
     1
 75
     0
 76
     0
 77
     0
 78
     0
 79
     0
140
0.18
141
0.09
142
0.0
143
25.4
144
1.0
145
0.0
146
1.0
147
0.09
148
0.0
170
     0
171
     2
172
     0
173
     0
174
     0
175
     0
176
     0
177
     0
178
     0
179
     0
271
     4
272
     4
273
     2
274
     2
275
     0
276
     0
277
     2
278
    46
279
     0
280
     0
281
     0
282
     0
283
     1
284
     0
285
     0
286
     0
288
     0
340
17
341
0
342
0
343
0
344
0
371
    -2
372
    -2
  0
ENDTAB
  0
TABLE
  2
BLOCK_RECORD
  5
1
100
AcDbSymbolTable
 70
    62
  0
BLOCK_RECORD
  5
A
100
AcDbSymbolTableRecord
100
AcDbBlockTableRecord
  2
*MODEL_SPACE
340
20
  0
BLOCK_RECORD
  5
B
100
AcDbSymbolTableRecord
100
AcDbBlockTableRecord
  2
*PAPER_SPACE
340
21
  0
BLOCK_RECORD
  5
30
100
AcDbSymbolTableRecord
100
AcDbBlockTableRecord
  2
AI9-BLK1
340
0
  0
BLOCK_RECORD
  5
36
100
AcDbSymbolTableRecord
100
AcDbBlockTableRecord
  2
AI9-BLK2
340
0
  0
BLOCK_RECORD
  5
3C
100
AcDbSymbolTableRecord
100
AcDbBlockTableRecord
  2
AI9-BLK3
340
0
  0
BLOCK_RECORD
  5
42
100
AcDbSymbolTableRecord
100
AcDbBlockTableRecord
  2
AI9-BLK4
340
0
  0
BLOCK_RECORD
  5
48
100
AcDbSymbolTableRecord
100
AcDbBlockTableRecord
  2
AI9-BLK5
340
0
  0
BLOCK_RECORD
  5
4E
100
AcDbSymbolTableRecord
100
AcDbBlockTableRecord
  2
AI9-BLK6
340
0
  0
BLOCK_RECORD
  5
54
100
AcDbSymbolTableRecord
100
AcDbBlockTableRecord
  2
AI9-BLK7
340
0
  0
BLOCK_RECORD
  5
5A
100
AcDbSymbolTableRecord
100
AcDbBlockTableRecord
  2
AI9-BLK8
340
0
  0
BLOCK_RECORD
  5
60
100
AcDbSymbolTableRecord
100
AcDbBlockTableRecord
  2
AI9-BLK9
340
0
  0
BLOCK_RECORD
  5
66
100
AcDbSymbolTableRecord
100
AcDbBlockTableRecord
  2
AI9-BLK10
340
0
  0
BLOCK_RECORD
  5
6D
100
AcDbSymbolTableRecord
100
AcDbBlockTableRecord
  2
AI9-BLK11
340
0
  0
BLOCK_RECORD
  5
74
100
AcDbSymbolTableRecord
100
AcDbBlockTableRecord
  2
AI9-BLK12
340
0
  0
BLOCK_RECORD
  5
7B
100
AcDbSymbolTableRecord
100
AcDbBlockTableRecord
  2
AI9-BLK13
340
0
  0
BLOCK_RECORD
  5
82
100
AcDbSymbolTableRecord
100
AcDbBlockTableRecord
  2
AI9-BLK14
340
0
  0
BLOCK_RECORD
  5
88
100
AcDbSymbolTableRecord
100
AcDbBlockTableRecord
  2
AI9-BLK15
340
0
  0
BLOCK_RECORD
  5
8E
100
AcDbSymbolTableRecord
100
AcDbBlockTableRecord
  2
AI9-BLK16
340
0
  0
BLOCK_RECORD
  5
95
100
AcDbSymbolTableRecord
100
AcDbBlockTableRecord
  2
AI9-BLK17
340
0
  0
BLOCK_RECORD
  5
9C
100
AcDbSymbolTableRecord
100
AcDbBlockTableRecord
  2
AI9-BLK18
340
0
  0
BLOCK_RECORD
  5
A2
100
AcDbSymbolTableRecord
100
AcDbBlockTableRecord
  2
AI9-BLK19
340
0
  0
BLOCK_RECORD
  5
A8
100
AcDbSymbolTableRecord
100
AcDbBlockTableRecord
  2
AI9-BLK20
340
0
  0
BLOCK_RECORD
  5
AF
100
AcDbSymbolTableRecord
100
AcDbBlockTableRecord
  2
AI9-BLK21
340
0
  0
BLOCK_RECORD
  5
B6
100
AcDbSymbolTableRecord
100
AcDbBlockTableRecord
  2
AI9-BLK22
340
0
  0
BLOCK_RECORD
  5
BD
100
AcDbSymbolTableRecord
100
AcDbBlockTableRecord
  2
AI9-BLK23
340
0
  0
BLOCK_RECORD
  5
C3
100
AcDbSymbolTableRecord
100
AcDbBlockTableRecord
  2
AI9-BLK24
340
0
  0
BLOCK_RECORD
  5
C9
100
AcDbSymbolTableRecord
100
AcDbBlockTableRecord
  2
AI9-BLK25
340
0
  0
BLOCK_RECORD
  5
D0
100
AcDbSymbolTableRecord
100
AcDbBlockTableRecord
  2
AI9-BLK26
340
0
  0
BLOCK_RECORD
  5
D7
100
AcDbSymbolTableRecord
100
AcDbBlockTableRecord
  2
AI9-BLK27
340
0
  0
BLOCK_RECORD
  5
DE
100
AcDbSymbolTableRecord
100
AcDbBlockTableRecord
  2
AI9-BLK28
340
0
  0
BLOCK_RECORD
  5
E4
100
AcDbSymbolTableRecord
100
AcDbBlockTableRecord
  2
AI9-BLK29
340
0
  0
BLOCK_RECORD
  5
EA
100
AcDbSymbolTableRecord
100
AcDbBlockTableRecord
  2
AI9-BLK30
340
0
  0
BLOCK_RECORD
  5
F1
100
AcDbSymbolTableRecord
100
AcDbBlockTableRecord
  2
AI9-BLK31
340
0
  0
BLOCK_RECORD
  5
F8
100
AcDbSymbolTableRecord
100
AcDbBlockTableRecord
  2
AI9-BLK32
340
0
  0
BLOCK_RECORD
  5
FF
100
AcDbSymbolTableRecord
100
AcDbBlockTableRecord
  2
AI9-BLK33
340
0
  0
BLOCK_RECORD
  5
105
100
AcDbSymbolTableRecord
100
AcDbBlockTableRecord
  2
AI9-BLK34
340
0
  0
BLOCK_RECORD
  5
17C
100
AcDbSymbolTableRecord
100
AcDbBlockTableRecord
  2
AI9-BLK35
340
0
  0
BLOCK_RECORD
  5
18D
100
AcDbSymbolTableRecord
100
AcDbBlockTableRecord
  2
AI9-BLK36
340
0
  0
BLOCK_RECORD
  5
1D9
100
AcDbSymbolTableRecord
100
AcDbBlockTableRecord
  2
AI9-BLK37
340
0
  0
BLOCK_RECORD
  5
1EA
100
AcDbSymbolTableRecord
100
AcDbBlockTableRecord
  2
AI9-BLK38
340
0
  0
BLOCK_RECORD
  5
270
100
AcDbSymbolTableRecord
100
AcDbBlockTableRecord
  2
AI9-BLK39
340
0
  0
BLOCK_RECORD
  5
281
100
AcDbSymbolTableRecord
100
AcDbBlockTableRecord
  2
AI9-BLK40
340
0
  0
BLOCK_RECORD
  5
292
100
AcDbSymbolTableRecord
100
AcDbBlockTableRecord
  2
AI9-BLK41
340
0
  0
BLOCK_RECORD
  5
2C1
100
AcDbSymbolTableRecord
100
AcDbBlockTableRecord
  2
AI9-BLK42
340
0
  0
BLOCK_RECORD
  5
2D2
100
AcDbSymbolTableRecord
100
AcDbBlockTableRecord
  2
AI9-BLK43
340
0
  0
BLOCK_RECORD
  5
2E3
100
AcDbSymbolTableRecord
100
AcDbBlockTableRecord
  2
AI9-BLK44
340
0
  0
BLOCK_RECORD
  5
312
100
AcDbSymbolTableRecord
100
AcDbBlockTableRecord
  2
AI9-BLK45
340
0
  0
BLOCK_RECORD
  5
323
100
AcDbSymbolTableRecord
100
AcDbBlockTableRecord
  2
AI9-BLK46
340
0
  0
BLOCK_RECORD
  5
334
100
AcDbSymbolTableRecord
100
AcDbBlockTableRecord
  2
AI9-BLK47
340
0
  0
BLOCK_RECORD
  5
363
100
AcDbSymbolTableRecord
100
AcDbBlockTableRecord
  2
AI9-BLK48
340
0
  0
BLOCK_RECORD
  5
374
100
AcDbSymbolTableRecord
100
AcDbBlockTableRecord
  2
AI9-BLK49
340
0
  0
BLOCK_RECORD
  5
385
100
AcDbSymbolTableRecord
100
AcDbBlockTableRecord
  2
AI9-BLK50
340
0
  0
BLOCK_RECORD
  5
4AD
100
AcDbSymbolTableRecord
100
AcDbBlockTableRecord
  2
AI9-BLK51
340
0
  0
BLOCK_RECORD
  5
4BE
100
AcDbSymbolTableRecord
100
AcDbBlockTableRecord
  2
AI9-BLK52
340
0
  0
BLOCK_RECORD
  5
4CF
100
AcDbSymbolTableRecord
100
AcDbBlockTableRecord
  2
AI9-BLK53
340
0
  0
BLOCK_RECORD
  5
4FE
100
AcDbSymbolTableRecord
100
AcDbBlockTableRecord
  2
AI9-BLK54
340
0
  0
BLOCK_RECORD
  5
50F
100
AcDbSymbolTableRecord
100
AcDbBlockTableRecord
  2
AI9-BLK55
340
0
  0
BLOCK_RECORD
  5
520
100
AcDbSymbolTableRecord
100
AcDbBlockTableRecord
  2
AI9-BLK56
340
0
  0
BLOCK_RECORD
  5
54F
100
AcDbSymbolTableRecord
100
AcDbBlockTableRecord
  2
AI9-BLK57
340
0
  0
BLOCK_RECORD
  5
560
100
AcDbSymbolTableRecord
100
AcDbBlockTableRecord
  2
AI9-BLK58
340
0
  0
BLOCK_RECORD
  5
571
100
AcDbSymbolTableRecord
100
AcDbBlockTableRecord
  2
AI9-BLK59
340
0
  0
BLOCK_RECORD
  5
5A0
100
AcDbSymbolTableRecord
100
AcDbBlockTableRecord
  2
AI9-BLK60
340
0
  0
BLOCK_RECORD
  5
5B1
100
AcDbSymbolTableRecord
100
AcDbBlockTableRecord
  2
AI9-BLK61
340
0
  0
BLOCK_RECORD
  5
5C2
100
AcDbSymbolTableRecord
100
AcDbBlockTableRecord
  2
AI9-BLK62
340
0
  0
ENDTAB
  0
ENDSEC
  0
SECTION
  2
BLOCKS
  0
BLOCK
  5
D
100
AcDbEntity
  8
0
100
AcDbBlockBegin
  2
*MODEL_SPACE
 70
     0
 10
0.0
 20
0.0
 30
0.0
  3
*MODEL_SPACE
  1

  0
ENDBLK
  5
E
100
AcDbEntity
  8
0
100
AcDbBlockEnd
  0
BLOCK
  5
F
100
AcDbEntity
 67
     1
  8
0
100
AcDbBlockBegin
  2
*PAPER_SPACE
 70
     0
 10
0.0
 20
0.0
 30
0.0
  3
*PAPER_SPACE
  1

  0
ENDBLK
  5
10
100
AcDbEntity
 67
     1
  8
0
100
AcDbBlockEnd
  0
BLOCK
  5
32
100
AcDbEntity
  8
LAYER_1
 62
     7
100
AcDbBlockBegin
  2
AI9-BLK1
 70
     0
 10
0.0
 20
0.0
 30
0.0
  3
AI9-BLK1
  1

  0
CIRCLE
  5
34
100
AcDbEntity
  8
LAYER_1
 62
     7
100
AcDbCircle
 10
0.0
 20
9.254215
 30
0.0
 40
1.587672
  0
SPLINE
  5
33
100
AcDbEntity
  8
LAYER_1
 62
     7
100
AcDbSpline
210
0.0
220
0.0
230
1.0
 70
     8
 71
     3
 72
    29
 73
    25
 74
     0
 42
0.00000001
 43
0.00000001
 40
0.0
 40
0.0
 40
0.0
 40
0.0
 40
1.0
 40
1.0
 40
1.0
 40
2.0
 40
2.0
 40
2.0
 40
3.0
 40
3.0
 40
3.0
 40
4.0
 40
4.0
 40
4.0
 40
5.0
 40
5.0
 40
5.0
 40
6.0
 40
6.0
 40
6.0
 40
7.0
 40
7.0
 40
7.0
 40
8.0
 40
8.0
 40
8.0
 40
8.0
 10
6.3501722547743054
 20
9.2542154947916657
 30
0.0
 10
6.3501722547743054
 20
12.761322699652776
 30
0.0
 10
3.5069349500868054
 20
15.604215494791665
 30
0.0
 10
-0.0001722547743056
 20
15.604215494791665
 30
0.0
 10
-3.5069349500868054
 20
15.604215494791665
 30
0.0
 10
-6.3501722547743054
 20
12.761322699652776
 30
0.0
 10
-6.3501722547743054
 20
9.2542154947916657
 30
0.0
 10
-6.3501722547743054
 20
-2.5814100477430553
 30
0.0
 10
-4.3261786566840277
 20
-12.526022677951389
 30
0.0
 10
-1.5876722547743054
 20
-15.34548882378472
 30
0.0
 10
-1.5876722547743054
 20
-15.34548882378472
 30
0.0
 10
-1.5876722547743054
 20
3.1122992621527774
 30
0.0
 10
-1.5876722547743054
 20
3.1122992621527774
 30
0.0
 10
-1.0791761610243054
 20
2.9813856336805551
 30
0.0
 10
-0.5493204752604166
 20
2.9042154947916665
 30
0.0
 10
-0.0001722547743056
 20
2.9042154947916665
 30
0.0
 10
0.5493204752604166
 20
2.9042154947916665
 30
0.0
 10
1.0791761610243054
 20
2.9813856336805551
 30
0.0
 10
1.5876722547743054
 20
3.1122992621527774
 30
0.0
 10
1.5876722547743054
 20
3.1122992621527774
 30
0.0
 10
1.5876722547743054
 20
-15.34548882378472
 30
0.0
 10
1.5876722547743054
 20
-15.34548882378472
 30
0.0
 10
4.3261786566840277
 20
-12.526022677951389
 30
0.0
 10
6.3501722547743054
 20
-2.5814100477430553
 30
0.0
 10
6.3501722547743054
 20
9.2542154947916657
 30
0.0
  0
ENDBLK
  5
35
100
AcDbEntity
  8
LAYER_1
100
AcDbBlockEnd
  0
BLOCK
  5
38
100
AcDbEntity
  8
LAYER_1
 62
     7
100
AcDbBlockBegin
  2
AI9-BLK2
 70
     0
 10
0.0
 20
0.0
 30
0.0
  3
AI9-BLK2
  1

  0
CIRCLE
  5
3A
100
AcDbEntity
  8
LAYER_1
 62
     7
100
AcDbCircle
 10
0.0
 20
9.254215
 30
0.0
 40
1.587672
  0
SPLINE
  5
39
100
AcDbEntity
  8
LAYER_1
 62
     7
100
AcDbSpline
210
0.0
220
0.0
230
1.0
 70
     8
 71
     3
 72
    29
 73
    25
 74
     0
 42
0.00000001
 43
0.00000001
 40
0.0
 40
0.0
 40
0.0
 40
0.0
 40
1.0
 40
1.0
 40
1.0
 40
2.0
 40
2.0
 40
2.0
 40
3.0
 40
3.0
 40
3.0
 40
4.0
 40
4.0
 40
4.0
 40
5.0
 40
5.0
 40
5.0
 40
6.0
 40
6.0
 40
6.0
 40
7.0
 40
7.0
 40
7.0
 40
8.0
 40
8.0
 40
8.0
 40
8.0
 10
6.3501722547743054
 20
9.2542154947916657
 30
0.0
 10
6.3501722547743054
 20
12.761322699652776
 30
0.0
 10
3.5069349500868054
 20
15.604215494791665
 30
0.0
 10
-0.0001722547743056
 20
15.604215494791665
 30
0.0
 10
-3.5069349500868054
 20
15.604215494791665
 30
0.0
 10
-6.3501722547743054
 20
12.761322699652776
 30
0.0
 10
-6.3501722547743054
 20
9.2542154947916657
 30
0.0
 10
-6.3501722547743054
 20
-2.5814100477430553
 30
0.0
 10
-4.3261786566840277
 20
-12.526022677951389
 30
0.0
 10
-1.5876722547743054
 20
-15.34548882378472
 30
0.0
 10
-1.5876722547743054
 20
-15.34548882378472
 30
0.0
 10
-1.5876722547743054
 20
3.1122992621527774
 30
0.0
 10
-1.5876722547743054
 20
3.1122992621527774
 30
0.0
 10
-1.0791761610243054
 20
2.9813856336805551
 30
0.0
 10
-0.5493204752604166
 20
2.9042154947916665
 30
0.0
 10
-0.0001722547743056
 20
2.9042154947916665
 30
0.0
 10
0.5493204752604166
 20
2.9042154947916665
 30
0.0
 10
1.0791761610243054
 20
2.9813856336805551
 30
0.0
 10
1.5876722547743054
 20
3.1122992621527774
 30
0.0
 10
1.5876722547743054
 20
3.1122992621527774
 30
0.0
 10
1.5876722547743054
 20
-15.34548882378472
 30
0.0
 10
1.5876722547743054
 20
-15.34548882378472
 30
0.0
 10
4.3261786566840277
 20
-12.526022677951389
 30
0.0
 10
6.3501722547743054
 20
-2.5814100477430553
 30
0.0
 10
6.3501722547743054
 20
9.2542154947916657
 30
0.0
  0
ENDBLK
  5
3B
100
AcDbEntity
  8
LAYER_1
100
AcDbBlockEnd
  0
BLOCK
  5
3E
100
AcDbEntity
  8
LAYER_1
 62
     7
100
AcDbBlockBegin
  2
AI9-BLK3
 70
     0
 10
0.0
 20
0.0
 30
0.0
  3
AI9-BLK3
  1

  0
CIRCLE
  5
40
100
AcDbEntity
  8
LAYER_1
 62
     7
100
AcDbCircle
 10
0.0
 20
9.254215
 30
0.0
 40
1.587672
  0
SPLINE
  5
3F
100
AcDbEntity
  8
LAYER_1
 62
     7
100
AcDbSpline
210
0.0
220
0.0
230
1.0
 70
     8
 71
     3
 72
    29
 73
    25
 74
     0
 42
0.00000001
 43
0.00000001
 40
0.0
 40
0.0
 40
0.0
 40
0.0
 40
1.0
 40
1.0
 40
1.0
 40
2.0
 40
2.0
 40
2.0
 40
3.0
 40
3.0
 40
3.0
 40
4.0
 40
4.0
 40
4.0
 40
5.0
 40
5.0
 40
5.0
 40
6.0
 40
6.0
 40
6.0
 40
7.0
 40
7.0
 40
7.0
 40
8.0
 40
8.0
 40
8.0
 40
8.0
 10
6.3501722547743054
 20
9.2542154947916657
 30
0.0
 10
6.3501722547743054
 20
12.761322699652776
 30
0.0
 10
3.5069349500868054
 20
15.604215494791665
 30
0.0
 10
-0.0001722547743056
 20
15.604215494791665
 30
0.0
 10
-3.5069349500868054
 20
15.604215494791665
 30
0.0
 10
-6.3501722547743054
 20
12.761322699652776
 30
0.0
 10
-6.3501722547743054
 20
9.2542154947916657
 30
0.0
 10
-6.3501722547743054
 20
-2.5814100477430553
 30
0.0
 10
-4.3261786566840277
 20
-12.526022677951389
 30
0.0
 10
-1.5876722547743054
 20
-15.34548882378472
 30
0.0
 10
-1.5876722547743054
 20
-15.34548882378472
 30
0.0
 10
-1.5876722547743054
 20
3.1122992621527774
 30
0.0
 10
-1.5876722547743054
 20
3.1122992621527774
 30
0.0
 10
-1.0791761610243054
 20
2.9813856336805551
 30
0.0
 10
-0.5493204752604166
 20
2.9042154947916665
 30
0.0
 10
-0.0001722547743056
 20
2.9042154947916665
 30
0.0
 10
0.5493204752604166
 20
2.9042154947916665
 30
0.0
 10
1.0791761610243054
 20
2.9813856336805551
 30
0.0
 10
1.5876722547743054
 20
3.1122992621527774
 30
0.0
 10
1.5876722547743054
 20
3.1122992621527774
 30
0.0
 10
1.5876722547743054
 20
-15.34548882378472
 30
0.0
 10
1.5876722547743054
 20
-15.34548882378472
 30
0.0
 10
4.3261786566840277
 20
-12.526022677951389
 30
0.0
 10
6.3501722547743054
 20
-2.5814100477430553
 30
0.0
 10
6.3501722547743054
 20
9.2542154947916657
 30
0.0
  0
ENDBLK
  5
41
100
AcDbEntity
  8
LAYER_1
100
AcDbBlockEnd
  0
BLOCK
  5
44
100
AcDbEntity
  8
LAYER_1
 62
     7
100
AcDbBlockBegin
  2
AI9-BLK4
 70
     0
 10
0.0
 20
0.0
 30
0.0
  3
AI9-BLK4
  1

  0
CIRCLE
  5
46
100
AcDbEntity
  8
LAYER_1
 62
     7
100
AcDbCircle
 10
0.0
 20
9.254215
 30
0.0
 40
1.587672
  0
SPLINE
  5
45
100
AcDbEntity
  8
LAYER_1
 62
     7
100
AcDbSpline
210
0.0
220
0.0
230
1.0
 70
     8
 71
     3
 72
    29
 73
    25
 74
     0
 42
0.00000001
 43
0.00000001
 40
0.0
 40
0.0
 40
0.0
 40
0.0
 40
1.0
 40
1.0
 40
1.0
 40
2.0
 40
2.0
 40
2.0
 40
3.0
 40
3.0
 40
3.0
 40
4.0
 40
4.0
 40
4.0
 40
5.0
 40
5.0
 40
5.0
 40
6.0
 40
6.0
 40
6.0
 40
7.0
 40
7.0
 40
7.0
 40
8.0
 40
8.0
 40
8.0
 40
8.0
 10
6.3501722547743054
 20
9.2542154947916657
 30
0.0
 10
6.3501722547743054
 20
12.761322699652776
 30
0.0
 10
3.5069349500868054
 20
15.604215494791665
 30
0.0
 10
-0.0001722547743056
 20
15.604215494791665
 30
0.0
 10
-3.5069349500868054
 20
15.604215494791665
 30
0.0
 10
-6.3501722547743054
 20
12.761322699652776
 30
0.0
 10
-6.3501722547743054
 20
9.2542154947916657
 30
0.0
 10
-6.3501722547743054
 20
-2.5814100477430553
 30
0.0
 10
-4.3261786566840277
 20
-12.526022677951389
 30
0.0
 10
-1.5876722547743054
 20
-15.34548882378472
 30
0.0
 10
-1.5876722547743054
 20
-15.34548882378472
 30
0.0
 10
-1.5876722547743054
 20
3.1122992621527774
 30
0.0
 10
-1.5876722547743054
 20
3.1122992621527774
 30
0.0
 10
-1.0791761610243054
 20
2.9813856336805551
 30
0.0
 10
-0.5493204752604166
 20
2.9042154947916665
 30
0.0
 10
-0.0001722547743056
 20
2.9042154947916665
 30
0.0
 10
0.5493204752604166
 20
2.9042154947916665
 30
0.0
 10
1.0791761610243054
 20
2.9813856336805551
 30
0.0
 10
1.5876722547743054
 20
3.1122992621527774
 30
0.0
 10
1.5876722547743054
 20
3.1122992621527774
 30
0.0
 10
1.5876722547743054
 20
-15.34548882378472
 30
0.0
 10
1.5876722547743054
 20
-15.34548882378472
 30
0.0
 10
4.3261786566840277
 20
-12.526022677951389
 30
0.0
 10
6.3501722547743054
 20
-2.5814100477430553
 30
0.0
 10
6.3501722547743054
 20
9.2542154947916657
 30
0.0
  0
ENDBLK
  5
47
100
AcDbEntity
  8
LAYER_1
100
AcDbBlockEnd
  0
BLOCK
  5
4A
100
AcDbEntity
  8
LAYER_1
 62
     7
100
AcDbBlockBegin
  2
AI9-BLK5
 70
     0
 10
0.0
 20
0.0
 30
0.0
  3
AI9-BLK5
  1

  0
CIRCLE
  5
4C
100
AcDbEntity
  8
LAYER_1
 62
     7
100
AcDbCircle
 10
-1.982997
 20
0.000172
 30
0.0
 40
1.5875
  0
SPLINE
  5
4B
100
AcDbEntity
  8
LAYER_1
 62
     7
100
AcDbSpline
210
0.0
220
0.0
230
1.0
 70
     8
 71
     3
 72
    20
 73
    16
 74
     0
 42
0.00000001
 43
0.00000001
 40
0.0
 40
0.0
 40
0.0
 40
0.0
 40
1.0
 40
1.0
 40
1.0
 40
2.0
 40
2.0
 40
2.0
 40
3.0
 40
3.0
 40
3.0
 40
4.0
 40
4.0
 40
4.0
 40
5.0
 40
5.0
 40
5.0
 40
5.0
 10
-1.9829969618055554
 20
10.160103352864583
 30
0.0
 10
-7.5940239800347218
 20
10.160103352864583
 30
0.0
 10
-12.142928059895832
 20
5.6115437825520829
 30
0.0
 10
-12.142928059895832
 20
0.0001722547743056
 30
0.0
 10
-12.142928059895832
 20
-5.6111992730034714
 30
0.0
 10
-7.5940239800347218
 20
-10.160103352864583
 30
0.0
 10
-1.9829969618055554
 20
-10.160103352864583
 30
0.0
 10
-1.9829969618055554
 20
-10.160103352864583
 30
0.0
 10
12.142928059895832
 20
-10.160103352864583
 30
0.0
 10
12.142928059895832
 20
-10.160103352864583
 30
0.0
 10
12.142928059895832
 20
-10.160103352864583
 30
0.0
 10
12.142928059895832
 20
10.160103352864583
 30
0.0
 10
12.142928059895832
 20
10.160103352864583
 30
0.0
 10
12.142928059895832
 20
10.160103352864583
 30
0.0
 10
-1.9829969618055554
 20
10.160103352864583
 30
0.0
 10
-1.9829969618055554
 20
10.160103352864583
 30
0.0
  0
ENDBLK
  5
4D
100
AcDbEntity
  8
LAYER_1
100
AcDbBlockEnd
  0
BLOCK
  5
50
100
AcDbEntity
  8
LAYER_1
 62
     7
100
AcDbBlockBegin
  2
AI9-BLK6
 70
     0
 10
0.0
 20
0.0
 30
0.0
  3
AI9-BLK6
  1

  0
CIRCLE
  5
52
100
AcDbEntity
  8
LAYER_1
 62
     7
100
AcDbCircle
 10
-0.000345
 20
-0.000345
 30
0.0
 40
1.5875
  0
CIRCLE
  5
51
100
AcDbEntity
  8
LAYER_1
 62
     7
100
AcDbCircle
 10
0.0
 20
-0.000345
 30
0.0
 40
10.159931
  0
ENDBLK
  5
53
100
AcDbEntity
  8
LAYER_1
100
AcDbBlockEnd
  0
BLOCK
  5
56
100
AcDbEntity
  8
LAYER_1
 62
     7
100
AcDbBlockBegin
  2
AI9-BLK7
 70
     0
 10
0.0
 20
0.0
 30
0.0
  3
AI9-BLK7
  1

  0
CIRCLE
  5
58
100
AcDbEntity
  8
LAYER_1
 62
     7
100
AcDbCircle
 10
0.0
 20
0.0
 30
0.0
 40
1.587418
  0
CIRCLE
  5
57
100
AcDbEntity
  8
LAYER_1
 62
     7
100
AcDbCircle
 10
0.0
 20
0.0
 30
0.0
 40
6.35
  0
ENDBLK
  5
59
100
AcDbEntity
  8
LAYER_1
100
AcDbBlockEnd
  0
BLOCK
  5
5C
100
AcDbEntity
  8
LAYER_1
 62
     7
100
AcDbBlockBegin
  2
AI9-BLK8
 70
     0
 10
0.0
 20
0.0
 30
0.0
  3
AI9-BLK8
  1

  0
CIRCLE
  5
5E
100
AcDbEntity
  8
LAYER_1
 62
     7
100
AcDbCircle
 10
-1.590256
 20
0.0
 30
0.0
 40
1.587418
  0
SPLINE
  5
5D
100
AcDbEntity
  8
LAYER_1
 62
     7
100
AcDbSpline
210
0.0
220
0.0
230
1.0
 70
     8
 71
     3
 72
    32
 73
    28
 74
     0
 42
0.00000001
 43
0.00000001
 40
0.0
 40
0.0
 40
0.0
 40
0.0
 40
1.0
 40
1.0
 40
1.0
 40
2.0
 40
2.0
 40
2.0
 40
3.0
 40
3.0
 40
3.0
 40
4.0
 40
4.0
 40
4.0
 40
5.0
 40
5.0
 40
5.0
 40
6.0
 40
6.0
 40
6.0
 40
7.0
 40
7.0
 40
7.0
 40
8.0
 40
8.0
 40
8.0
 40
9.0
 40
9.0
 40
9.0
 40
9.0
 10
-1.5850884331597221
 20
6.3499999999999996
 30
0.0
 10
-1.5850884331597221
 20
6.3499999999999996
 30
0.0
 10
-1.5850884331597221
 20
6.3496554904513882
 30
0.0
 10
-1.5850884331597221
 20
6.3496554904513882
 30
0.0
 10
-1.5868109809027777
 20
6.3496554904513882
 30
0.0
 10
-1.5881890190972221
 20
6.3499999999999996
 30
0.0
 10
-1.5902560763888887
 20
6.3499999999999996
 30
0.0
 10
-5.0970187717013884
 20
6.3499999999999996
 30
0.0
 10
-7.9402560763888879
 20
3.5071072048611107
 30
0.0
 10
-7.9402560763888879
 20
0.0
 30
0.0
 10
-7.9402560763888879
 20
-3.5071072048611107
 30
0.0
 10
-5.0970187717013884
 20
-6.3499999999999996
 30
0.0
 10
-1.5902560763888887
 20
-6.3499999999999996
 30
0.0
 10
-1.5881890190972221
 20
-6.3499999999999996
 30
0.0
 10
-1.5868109809027777
 20
-6.3496554904513882
 30
0.0
 10
-1.5850884331597221
 20
-6.3496554904513882
 30
0.0
 10
-1.5850884331597221
 20
-6.3496554904513882
 30
0.0
 10
-1.5850884331597221
 20
-6.3499999999999996
 30
0.0
 10
-1.5850884331597221
 20
-6.3499999999999996
 30
0.0
 10
-1.5850884331597221
 20
-6.3499999999999996
 30
0.0
 10
7.9399115668402773
 20
-6.3499999999999996
 30
0.0
 10
7.9399115668402773
 20
-6.3499999999999996
 30
0.0
 10
7.9399115668402773
 20
-6.3499999999999996
 30
0.0
 10
7.9399115668402773
 20
6.3499999999999996
 30
0.0
 10
7.9399115668402773
 20
6.3499999999999996
 30
0.0
 10
7.9399115668402773
 20
6.3499999999999996
 30
0.0
 10
-1.5850884331597221
 20
6.3499999999999996
 30
0.0
 10
-1.5850884331597221
 20
6.3499999999999996
 30
0.0
  0
ENDBLK
  5
5F
100
AcDbEntity
  8
LAYER_1
100
AcDbBlockEnd
  0
BLOCK
  5
62
100
AcDbEntity
  8
LAYER_1
 62
     7
100
AcDbBlockBegin
  2
AI9-BLK9
 70
     0
 10
0.0
 20
0.0
 30
0.0
  3
AI9-BLK9
  1

  0
CIRCLE
  5
64
100
AcDbEntity
  8
LAYER_1
 62
     7
100
AcDbCircle
 10
-1.590256
 20
0.0
 30
0.0
 40
1.587418
  0
SPLINE
  5
63
100
AcDbEntity
  8
LAYER_1
 62
     7
100
AcDbSpline
210
0.0
220
0.0
230
1.0
 70
     8
 71
     3
 72
    32
 73
    28
 74
     0
 42
0.00000001
 43
0.00000001
 40
0.0
 40
0.0
 40
0.0
 40
0.0
 40
1.0
 40
1.0
 40
1.0
 40
2.0
 40
2.0
 40
2.0
 40
3.0
 40
3.0
 40
3.0
 40
4.0
 40
4.0
 40
4.0
 40
5.0
 40
5.0
 40
5.0
 40
6.0
 40
6.0
 40
6.0
 40
7.0
 40
7.0
 40
7.0
 40
8.0
 40
8.0
 40
8.0
 40
9.0
 40
9.0
 40
9.0
 40
9.0
 10
-1.5850884331597221
 20
6.3499999999999996
 30
0.0
 10
-1.5850884331597221
 20
6.3499999999999996
 30
0.0
 10
-1.5850884331597221
 20
6.3496554904513882
 30
0.0
 10
-1.5850884331597221
 20
6.3496554904513882
 30
0.0
 10
-1.5871554904513887
 20
6.3496554904513882
 30
0.0
 10
-1.5885335286458331
 20
6.3499999999999996
 30
0.0
 10
-1.5902560763888887
 20
6.3499999999999996
 30
0.0
 10
-5.0970187717013884
 20
6.3499999999999996
 30
0.0
 10
-7.9402560763888879
 20
3.5071072048611107
 30
0.0
 10
-7.9402560763888879
 20
0.0
 30
0.0
 10
-7.9402560763888879
 20
-3.5071072048611107
 30
0.0
 10
-5.0970187717013884
 20
-6.3499999999999996
 30
0.0
 10
-1.5902560763888887
 20
-6.3499999999999996
 30
0.0
 10
-1.5885335286458331
 20
-6.3499999999999996
 30
0.0
 10
-1.5871554904513887
 20
-6.3496554904513882
 30
0.0
 10
-1.5850884331597221
 20
-6.3496554904513882
 30
0.0
 10
-1.5850884331597221
 20
-6.3496554904513882
 30
0.0
 10
-1.5850884331597221
 20
-6.3499999999999996
 30
0.0
 10
-1.5850884331597221
 20
-6.3499999999999996
 30
0.0
 10
-1.5850884331597221
 20
-6.3499999999999996
 30
0.0
 10
7.9399115668402773
 20
-6.3499999999999996
 30
0.0
 10
7.9399115668402773
 20
-6.3499999999999996
 30
0.0
 10
7.9399115668402773
 20
-6.3499999999999996
 30
0.0
 10
7.9399115668402773
 20
6.3499999999999996
 30
0.0
 10
7.9399115668402773
 20
6.3499999999999996
 30
0.0
 10
7.9399115668402773
 20
6.3499999999999996
 30
0.0
 10
-1.5850884331597221
 20
6.3499999999999996
 30
0.0
 10
-1.5850884331597221
 20
6.3499999999999996
 30
0.0
  0
ENDBLK
  5
65
100
AcDbEntity
  8
LAYER_1
100
AcDbBlockEnd
  0
BLOCK
  5
68
100
AcDbEntity
  8
LAYER_1
 62
     7
100
AcDbBlockBegin
  2
AI9-BLK10
 70
     0
 10
0.0
 20
0.0
 30
0.0
  3
AI9-BLK10
  1

  0
CIRCLE
  5
6B
100
AcDbEntity
  8
LAYER_1
 62
     7
100
AcDbCircle
 10
0.0
 20
20.193772
 30
0.0
 40
1.5875
  0
SPLINE
  5
6A
100
AcDbEntity
  8
LAYER_1
 62
     7
100
AcDbSpline
210
0.0
220
0.0
230
1.0
 70
     8
 71
     3
 72
    23
 73
    19
 74
     0
 42
0.00000001
 43
0.00000001
 40
0.0
 40
0.0
 40
0.0
 40
0.0
 40
1.0
 40
1.0
 40
1.0
 40
2.0
 40
2.0
 40
2.0
 40
3.0
 40
3.0
 40
3.0
 40
4.0
 40
4.0
 40
4.0
 40
5.0
 40
5.0
 40
5.0
 40
6.0
 40
6.0
 40
6.0
 40
6.0
 10
0.0
 20
25.27390950520833
 30
0.0
 10
-2.8056857638888886
 20
25.27390950520833
 30
0.0
 10
-5.0801378038194436
 20
22.999457465277775
 30
0.0
 10
-5.0801378038194436
 20
20.193771701388886
 30
0.0
 10
-5.0801378038194436
 20
20.193771701388886
 30
0.0
 10
-5.0801378038194436
 20
-20.193771701388886
 30
0.0
 10
-5.0801378038194436
 20
-20.193771701388886
 30
0.0
 10
-5.0801378038194436
 20
-22.999457465277775
 30
0.0
 10
-2.8056857638888886
 20
-25.27390950520833
 30
0.0
 10
0.0
 20
-25.27390950520833
 30
0.0
 10
2.8056857638888886
 20
-25.27390950520833
 30
0.0
 10
5.0801378038194436
 20
-22.999457465277775
 30
0.0
 10
5.0801378038194436
 20
-20.193771701388886
 30
0.0
 10
5.0801378038194436
 20
-20.193771701388886
 30
0.0
 10
5.0801378038194436
 20
20.193771701388886
 30
0.0
 10
5.0801378038194436
 20
20.193771701388886
 30
0.0
 10
5.0801378038194436
 20
22.999457465277775
 30
0.0
 10
2.8056857638888886
 20
25.27390950520833
 30
0.0
 10
0.0
 20
25.27390950520833
 30
0.0
  0
CIRCLE
  5
69
100
AcDbEntity
  8
LAYER_1
 62
     7
100
AcDbCircle
 10
0.0
 20
-20.193772
 30
0.0
 40
1.5875
  0
ENDBLK
  5
6C
100
AcDbEntity
  8
LAYER_1
100
AcDbBlockEnd
  0
BLOCK
  5
6F
100
AcDbEntity
  8
LAYER_1
 62
     7
100
AcDbBlockBegin
  2
AI9-BLK11
 70
     0
 10
0.0
 20
0.0
 30
0.0
  3
AI9-BLK11
  1

  0
CIRCLE
  5
72
100
AcDbEntity
  8
LAYER_1
 62
     7
100
AcDbCircle
 10
0.0
 20
19.393648
 30
0.0
 40
1.5875
  0
SPLINE
  5
71
100
AcDbEntity
  8
LAYER_1
 62
     7
100
AcDbSpline
210
0.0
220
0.0
230
1.0
 70
     8
 71
     3
 72
    29
 73
    25
 74
     0
 42
0.00000001
 43
0.00000001
 40
0.0
 40
0.0
 40
0.0
 40
0.0
 40
1.0
 40
1.0
 40
1.0
 40
2.0
 40
2.0
 40
2.0
 40
3.0
 40
3.0
 40
3.0
 40
4.0
 40
4.0
 40
4.0
 40
5.0
 40
5.0
 40
5.0
 40
6.0
 40
6.0
 40
6.0
 40
7.0
 40
7.0
 40
7.0
 40
8.0
 40
8.0
 40
8.0
 40
8.0
 10
0.0
 20
24.473786078559026
 30
0.0
 10
-2.8056857638888886
 20
24.473786078559026
 30
0.0
 10
-5.0801378038194436
 20
22.199334038628471
 30
0.0
 10
-5.0801378038194436
 20
19.393648274739583
 30
0.0
 10
-5.0801378038194436
 20
19.393648274739583
 30
0.0
 10
-5.0801378038194436
 20
-19.505958387586805
 30
0.0
 10
-5.0801378038194436
 20
-19.505958387586805
 30
0.0
 10
-5.0801378038194436
 20
-19.505958387586805
 30
0.0
 10
-5.0746256510416661
 20
-19.505958387586805
 30
0.0
 10
-5.0746256510416661
 20
-19.505958387586805
 30
0.0
 10
-5.0146809895833329
 20
-22.259278700086803
 30
0.0
 10
-2.7681342230902777
 20
-24.473786078559026
 30
0.0
 10
0.0
 20
-24.473786078559026
 30
0.0
 10
2.7677897135416663
 20
-24.473786078559026
 30
0.0
 10
5.0143364800347214
 20
-22.259278700086803
 30
0.0
 10
5.0742811414930555
 20
-19.505958387586805
 30
0.0
 10
5.0742811414930555
 20
-19.505958387586805
 30
0.0
 10
5.0801378038194436
 20
-19.505958387586805
 30
0.0
 10
5.0801378038194436
 20
-19.505958387586805
 30
0.0
 10
5.0801378038194436
 20
-19.505958387586805
 30
0.0
 10
5.0801378038194436
 20
19.393648274739583
 30
0.0
 10
5.0801378038194436
 20
19.393648274739583
 30
0.0
 10
5.0801378038194436
 20
22.199334038628471
 30
0.0
 10
2.8056857638888886
 20
24.473786078559026
 30
0.0
 10
0.0
 20
24.473786078559026
 30
0.0
  0
CIRCLE
  5
70
100
AcDbEntity
  8
LAYER_1
 62
     7
100
AcDbCircle
 10
0.0
 20
-19.393993
 30
0.0
 40
1.5875
  0
ENDBLK
  5
73
100
AcDbEntity
  8
LAYER_1
100
AcDbBlockEnd
  0
BLOCK
  5
76
100
AcDbEntity
  8
LAYER_1
 62
     7
100
AcDbBlockBegin
  2
AI9-BLK12
 70
     0
 10
0.0
 20
0.0
 30
0.0
  3
AI9-BLK12
  1

  0
CIRCLE
  5
79
100
AcDbEntity
  8
LAYER_1
 62
     7
100
AcDbCircle
 10
0.0
 20
19.393648
 30
0.0
 40
1.5875
  0
SPLINE
  5
78
100
AcDbEntity
  8
LAYER_1
 62
     7
100
AcDbSpline
210
0.0
220
0.0
230
1.0
 70
     8
 71
     3
 72
    29
 73
    25
 74
     0
 42
0.00000001
 43
0.00000001
 40
0.0
 40
0.0
 40
0.0
 40
0.0
 40
1.0
 40
1.0
 40
1.0
 40
2.0
 40
2.0
 40
2.0
 40
3.0
 40
3.0
 40
3.0
 40
4.0
 40
4.0
 40
4.0
 40
5.0
 40
5.0
 40
5.0
 40
6.0
 40
6.0
 40
6.0
 40
7.0
 40
7.0
 40
7.0
 40
8.0
 40
8.0
 40
8.0
 40
8.0
 10
0.0
 20
24.473786078559026
 30
0.0
 10
-2.8056857638888886
 20
24.473786078559026
 30
0.0
 10
-5.0801378038194436
 20
22.199334038628471
 30
0.0
 10
-5.0801378038194436
 20
19.393648274739583
 30
0.0
 10
-5.0801378038194436
 20
19.393648274739583
 30
0.0
 10
-5.0801378038194436
 20
-19.505958387586805
 30
0.0
 10
-5.0801378038194436
 20
-19.505958387586805
 30
0.0
 10
-5.0801378038194436
 20
-19.505958387586805
 30
0.0
 10
-5.0746256510416661
 20
-19.505958387586805
 30
0.0
 10
-5.0746256510416661
 20
-19.505958387586805
 30
0.0
 10
-5.0146809895833329
 20
-22.259278700086803
 30
0.0
 10
-2.7677897135416663
 20
-24.473786078559026
 30
0.0
 10
0.0
 20
-24.473786078559026
 30
0.0
 10
2.7677897135416663
 20
-24.473786078559026
 30
0.0
 10
5.0146809895833329
 20
-22.259278700086803
 30
0.0
 10
5.0746256510416661
 20
-19.505958387586805
 30
0.0
 10
5.0746256510416661
 20
-19.505958387586805
 30
0.0
 10
5.0801378038194436
 20
-19.505958387586805
 30
0.0
 10
5.0801378038194436
 20
-19.505958387586805
 30
0.0
 10
5.0801378038194436
 20
-19.505958387586805
 30
0.0
 10
5.0801378038194436
 20
19.393648274739583
 30
0.0
 10
5.0801378038194436
 20
19.393648274739583
 30
0.0
 10
5.0801378038194436
 20
22.199334038628471
 30
0.0
 10
2.8056857638888886
 20
24.473786078559026
 30
0.0
 10
0.0
 20
24.473786078559026
 30
0.0
  0
CIRCLE
  5
77
100
AcDbEntity
  8
LAYER_1
 62
     7
100
AcDbCircle
 10
0.0
 20
-19.393993
 30
0.0
 40
1.5875
  0
ENDBLK
  5
7A
100
AcDbEntity
  8
LAYER_1
100
AcDbBlockEnd
  0
BLOCK
  5
7D
100
AcDbEntity
  8
LAYER_1
 62
     7
100
AcDbBlockBegin
  2
AI9-BLK13
 70
     0
 10
0.0
 20
0.0
 30
0.0
  3
AI9-BLK13
  1

  0
CIRCLE
  5
80
100
AcDbEntity
  8
LAYER_1
 62
     7
100
AcDbCircle
 10
0.0
 20
13.086023
 30
0.0
 40
1.5875
  0
SPLINE
  5
7F
100
AcDbEntity
  8
LAYER_1
 62
     7
100
AcDbSpline
210
0.0
220
0.0
230
1.0
 70
     8
 71
     3
 72
    23
 73
    19
 74
     0
 42
0.00000001
 43
0.00000001
 40
0.0
 40
0.0
 40
0.0
 40
0.0
 40
1.0
 40
1.0
 40
1.0
 40
2.0
 40
2.0
 40
2.0
 40
3.0
 40
3.0
 40
3.0
 40
4.0
 40
4.0
 40
4.0
 40
5.0
 40
5.0
 40
5.0
 40
6.0
 40
6.0
 40
6.0
 40
6.0
 10
0.0
 20
18.166160753038191
 30
0.0
 10
-2.8056857638888886
 20
18.166160753038191
 30
0.0
 10
-5.0801378038194436
 20
15.891708713107638
 30
0.0
 10
-5.0801378038194436
 20
13.08602294921875
 30
0.0
 10
-5.0801378038194436
 20
13.08602294921875
 30
0.0
 10
-5.0801378038194436
 20
-13.086367458767359
 30
0.0
 10
-5.0801378038194436
 20
-13.086367458767359
 30
0.0
 10
-5.0801378038194436
 20
-15.892053222656248
 30
0.0
 10
-2.8056857638888886
 20
-18.166160753038191
 30
0.0
 10
0.0
 20
-18.166160753038191
 30
0.0
 10
2.8056857638888886
 20
-18.166160753038191
 30
0.0
 10
5.0801378038194436
 20
-15.892053222656248
 30
0.0
 10
5.0801378038194436
 20
-13.086367458767359
 30
0.0
 10
5.0801378038194436
 20
-13.086367458767359
 30
0.0
 10
5.0801378038194436
 20
13.08602294921875
 30
0.0
 10
5.0801378038194436
 20
13.08602294921875
 30
0.0
 10
5.0801378038194436
 20
15.891708713107638
 30
0.0
 10
2.8056857638888886
 20
18.166160753038191
 30
0.0
 10
0.0
 20
18.166160753038191
 30
0.0
  0
CIRCLE
  5
7E
100
AcDbEntity
  8
LAYER_1
 62
     7
100
AcDbCircle
 10
0.0
 20
-13.086367
 30
0.0
 40
1.5875
  0
ENDBLK
  5
81
100
AcDbEntity
  8
LAYER_1
100
AcDbBlockEnd
  0
BLOCK
  5
84
100
AcDbEntity
  8
LAYER_1
 62
     7
100
AcDbBlockBegin
  2
AI9-BLK14
 70
     0
 10
0.0
 20
0.0
 30
0.0
  3
AI9-BLK14
  1

  0
CIRCLE
  5
86
100
AcDbEntity
  8
LAYER_1
 62
     7
100
AcDbCircle
 10
0.0
 20
-7.452603
 30
0.0
 40
1.5875
  0
SPLINE
  5
85
100
AcDbEntity
  8
LAYER_1
 62
     7
100
AcDbSpline
210
0.0
220
0.0
230
1.0
 70
     8
 71
     3
 72
    23
 73
    19
 74
     0
 42
0.00000001
 43
0.00000001
 40
0.0
 40
0.0
 40
0.0
 40
0.0
 40
1.0
 40
1.0
 40
1.0
 40
2.0
 40
2.0
 40
2.0
 40
3.0
 40
3.0
 40
3.0
 40
4.0
 40
4.0
 40
4.0
 40
5.0
 40
5.0
 40
5.0
 40
6.0
 40
6.0
 40
6.0
 40
6.0
 10
0.0
 20
12.532740614149304
 30
0.0
 10
-2.8056857638888886
 20
12.532740614149304
 30
0.0
 10
-5.0801378038194436
 20
10.258633083767361
 30
0.0
 10
-5.0801378038194436
 20
7.4529473198784713
 30
0.0
 10
-5.0801378038194436
 20
7.4529473198784713
 30
0.0
 10
-5.0801378038194436
 20
-7.4526028103298607
 30
0.0
 10
-5.0801378038194436
 20
-7.4526028103298607
 30
0.0
 10
-5.0801378038194436
 20
-10.258288574218749
 30
0.0
 10
-2.8056857638888886
 20
-12.532740614149304
 30
0.0
 10
0.0
 20
-12.532740614149304
 30
0.0
 10
2.8056857638888886
 20
-12.532740614149304
 30
0.0
 10
5.0801378038194436
 20
-10.258288574218749
 30
0.0
 10
5.0801378038194436
 20
-7.4526028103298607
 30
0.0
 10
5.0801378038194436
 20
-7.4526028103298607
 30
0.0
 10
5.0801378038194436
 20
7.4529473198784713
 30
0.0
 10
5.0801378038194436
 20
7.4529473198784713
 30
0.0
 10
5.0801378038194436
 20
10.258633083767361
 30
0.0
 10
2.8056857638888886
 20
12.532740614149304
 30
0.0
 10
0.0
 20
12.532740614149304
 30
0.0
  0
ENDBLK
  5
87
100
AcDbEntity
  8
LAYER_1
100
AcDbBlockEnd
  0
BLOCK
  5
8A
100
AcDbEntity
  8
LAYER_1
 62
     7
100
AcDbBlockBegin
  2
AI9-BLK15
 70
     0
 10
0.0
 20
0.0
 30
0.0
  3
AI9-BLK15
  1

  0
CIRCLE
  5
8C
100
AcDbEntity
  8
LAYER_1
 62
     7
100
AcDbCircle
 10
0.0
 20
-7.452603
 30
0.0
 40
1.5875
  0
SPLINE
  5
8B
100
AcDbEntity
  8
LAYER_1
 62
     7
100
AcDbSpline
210
0.0
220
0.0
230
1.0
 70
     8
 71
     3
 72
    23
 73
    19
 74
     0
 42
0.00000001
 43
0.00000001
 40
0.0
 40
0.0
 40
0.0
 40
0.0
 40
1.0
 40
1.0
 40
1.0
 40
2.0
 40
2.0
 40
2.0
 40
3.0
 40
3.0
 40
3.0
 40
4.0
 40
4.0
 40
4.0
 40
5.0
 40
5.0
 40
5.0
 40
6.0
 40
6.0
 40
6.0
 40
6.0
 10
0.0
 20
12.532740614149304
 30
0.0
 10
-2.8056857638888886
 20
12.532740614149304
 30
0.0
 10
-5.0801378038194436
 20
10.258633083767361
 30
0.0
 10
-5.0801378038194436
 20
7.4529473198784713
 30
0.0
 10
-5.0801378038194436
 20
7.4529473198784713
 30
0.0
 10
-5.0801378038194436
 20
-7.4526028103298607
 30
0.0
 10
-5.0801378038194436
 20
-7.4526028103298607
 30
0.0
 10
-5.0801378038194436
 20
-10.258288574218749
 30
0.0
 10
-2.8056857638888886
 20
-12.532740614149304
 30
0.0
 10
0.0
 20
-12.532740614149304
 30
0.0
 10
2.8056857638888886
 20
-12.532740614149304
 30
0.0
 10
5.0801378038194436
 20
-10.258288574218749
 30
0.0
 10
5.0801378038194436
 20
-7.4526028103298607
 30
0.0
 10
5.0801378038194436
 20
-7.4526028103298607
 30
0.0
 10
5.0801378038194436
 20
7.4529473198784713
 30
0.0
 10
5.0801378038194436
 20
7.4529473198784713
 30
0.0
 10
5.0801378038194436
 20
10.258633083767361
 30
0.0
 10
2.8056857638888886
 20
12.532740614149304
 30
0.0
 10
0.0
 20
12.532740614149304
 30
0.0
  0
ENDBLK
  5
8D
100
AcDbEntity
  8
LAYER_1
100
AcDbBlockEnd
  0
BLOCK
  5
90
100
AcDbEntity
  8
LAYER_1
 62
     7
100
AcDbBlockBegin
  2
AI9-BLK16
 70
     0
 10
0.0
 20
0.0
 30
0.0
  3
AI9-BLK16
  1

  0
CIRCLE
  5
93
100
AcDbEntity
  8
LAYER_1
 62
     7
100
AcDbCircle
 10
0.0
 20
20.193772
 30
0.0
 40
1.5875
  0
SPLINE
  5
92
100
AcDbEntity
  8
LAYER_1
 62
     7
100
AcDbSpline
210
0.0
220
0.0
230
1.0
 70
     8
 71
     3
 72
    23
 73
    19
 74
     0
 42
0.00000001
 43
0.00000001
 40
0.0
 40
0.0
 40
0.0
 40
0.0
 40
1.0
 40
1.0
 40
1.0
 40
2.0
 40
2.0
 40
2.0
 40
3.0
 40
3.0
 40
3.0
 40
4.0
 40
4.0
 40
4.0
 40
5.0
 40
5.0
 40
5.0
 40
6.0
 40
6.0
 40
6.0
 40
6.0
 10
0.0
 20
25.27390950520833
 30
0.0
 10
-2.8056857638888886
 20
25.27390950520833
 30
0.0
 10
-5.0801378038194436
 20
22.999457465277775
 30
0.0
 10
-5.0801378038194436
 20
20.193771701388886
 30
0.0
 10
-5.0801378038194436
 20
20.193771701388886
 30
0.0
 10
-5.0801378038194436
 20
-20.193771701388886
 30
0.0
 10
-5.0801378038194436
 20
-20.193771701388886
 30
0.0
 10
-5.0801378038194436
 20
-22.999457465277775
 30
0.0
 10
-2.8056857638888886
 20
-25.27390950520833
 30
0.0
 10
0.0
 20
-25.27390950520833
 30
0.0
 10
2.8056857638888886
 20
-25.27390950520833
 30
0.0
 10
5.0801378038194436
 20
-22.999457465277775
 30
0.0
 10
5.0801378038194436
 20
-20.193771701388886
 30
0.0
 10
5.0801378038194436
 20
-20.193771701388886
 30
0.0
 10
5.0801378038194436
 20
20.193771701388886
 30
0.0
 10
5.0801378038194436
 20
20.193771701388886
 30
0.0
 10
5.0801378038194436
 20
22.999457465277775
 30
0.0
 10
2.8056857638888886
 20
25.27390950520833
 30
0.0
 10
0.0
 20
25.27390950520833
 30
0.0
  0
CIRCLE
  5
91
100
AcDbEntity
  8
LAYER_1
 62
     7
100
AcDbCircle
 10
0.0
 20
-20.193772
 30
0.0
 40
1.5875
  0
ENDBLK
  5
94
100
AcDbEntity
  8
LAYER_1
100
AcDbBlockEnd
  0
BLOCK
  5
97
100
AcDbEntity
  8
LAYER_1
 62
     7
100
AcDbBlockBegin
  2
AI9-BLK17
 70
     0
 10
0.0
 20
0.0
 30
0.0
  3
AI9-BLK17
  1

  0
CIRCLE
  5
9A
100
AcDbEntity
  8
LAYER_1
 62
     7
100
AcDbCircle
 10
0.0
 20
10.685997
 30
0.0
 40
1.5875
  0
SPLINE
  5
99
100
AcDbEntity
  8
LAYER_1
 62
     7
100
AcDbSpline
210
0.0
220
0.0
230
1.0
 70
     8
 71
     3
 72
    35
 73
    31
 74
     0
 42
0.00000001
 43
0.00000001
 40
0.0
 40
0.0
 40
0.0
 40
0.0
 40
1.0
 40
1.0
 40
1.0
 40
2.0
 40
2.0
 40
2.0
 40
3.0
 40
3.0
 40
3.0
 40
4.0
 40
4.0
 40
4.0
 40
5.0
 40
5.0
 40
5.0
 40
6.0
 40
6.0
 40
6.0
 40
7.0
 40
7.0
 40
7.0
 40
8.0
 40
8.0
 40
8.0
 40
9.0
 40
9.0
 40
9.0
 40
10.0
 40
10.0
 40
10.0
 40
10.0
 10
5.0801378038194436
 20
10.685997178819443
 30
0.0
 10
5.0801378038194436
 20
13.49133843315972
 30
0.0
 10
2.8056857638888886
 20
15.765790473090277
 30
0.0
 10
0.0
 20
15.765790473090277
 30
0.0
 10
-2.8056857638888886
 20
15.765790473090277
 30
0.0
 10
-5.0801378038194436
 20
13.49133843315972
 30
0.0
 10
-5.0801378038194436
 20
10.685997178819443
 30
0.0
 10
-5.0801378038194436
 20
10.685997178819443
 30
0.0
 10
-5.0801378038194436
 20
-10.657402886284721
 30
0.0
 10
-5.0801378038194436
 20
-10.657402886284721
 30
0.0
 10
-5.0801378038194436
 20
-10.657402886284721
 30
0.0
 10
-5.0787597656249996
 20
-10.657402886284721
 30
0.0
 10
-5.0787597656249996
 20
-10.657402886284721
 30
0.0
 10
-5.0787597656249996
 20
-10.666704644097221
 30
0.0
 10
-5.0801378038194436
 20
-10.676350911458332
 30
0.0
 10
-5.0801378038194436
 20
-10.685997178819443
 30
0.0
 10
-5.0801378038194436
 20
-13.491682942708332
 30
0.0
 10
-2.8056857638888886
 20
-15.765790473090277
 30
0.0
 10
0.0
 20
-15.765790473090277
 30
0.0
 10
2.8056857638888886
 20
-15.765790473090277
 30
0.0
 10
5.0801378038194436
 20
-13.491682942708332
 30
0.0
 10
5.0801378038194436
 20
-10.685997178819443
 30
0.0
 10
5.0801378038194436
 20
-10.676350911458332
 30
0.0
 10
5.0787597656249996
 20
-10.666704644097221
 30
0.0
 10
5.0787597656249996
 20
-10.657402886284721
 30
0.0
 10
5.0787597656249996
 20
-10.657402886284721
 30
0.0
 10
5.0801378038194436
 20
-10.657402886284721
 30
0.0
 10
5.0801378038194436
 20
-10.657402886284721
 30
0.0
 10
5.0801378038194436
 20
-10.657402886284721
 30
0.0
 10
5.0801378038194436
 20
10.685997178819443
 30
0.0
 10
5.0801378038194436
 20
10.685997178819443
 30
0.0
  0
CIRCLE
  5
98
100
AcDbEntity
  8
LAYER_1
 62
     7
100
AcDbCircle
 10
0.0
 20
-10.685997
 30
0.0
 40
1.5875
  0
ENDBLK
  5
9B
100
AcDbEntity
  8
LAYER_1
100
AcDbBlockEnd
  0
BLOCK
  5
9E
100
AcDbEntity
  8
LAYER_1
 62
     7
100
AcDbBlockBegin
  2
AI9-BLK18
 70
     0
 10
0.0
 20
0.0
 30
0.0
  3
AI9-BLK18
  1

  0
CIRCLE
  5
A0
100
AcDbEntity
  8
LAYER_1
 62
     7
100
AcDbCircle
 10
0.0
 20
-6.505718
 30
0.0
 40
1.5875
  0
SPLINE
  5
9F
100
AcDbEntity
  8
LAYER_1
 62
     7
100
AcDbSpline
210
0.0
220
0.0
230
1.0
 70
     8
 71
     3
 72
    23
 73
    19
 74
     0
 42
0.00000001
 43
0.00000001
 40
0.0
 40
0.0
 40
0.0
 40
0.0
 40
1.0
 40
1.0
 40
1.0
 40
2.0
 40
2.0
 40
2.0
 40
3.0
 40
3.0
 40
3.0
 40
4.0
 40
4.0
 40
4.0
 40
5.0
 40
5.0
 40
5.0
 40
6.0
 40
6.0
 40
6.0
 40
6.0
 10
0.0
 20
11.585511610243055
 30
0.0
 10
-2.8056857638888886
 20
11.585511610243055
 30
0.0
 10
-5.0801378038194436
 20
9.3110595703124996
 30
0.0
 10
-5.0801378038194436
 20
6.5053738064236102
 30
0.0
 10
-5.0801378038194436
 20
6.5053738064236102
 30
0.0
 10
-5.0801378038194436
 20
-6.5057183159722216
 30
0.0
 10
-5.0801378038194436
 20
-6.5057183159722216
 30
0.0
 10
-5.0801378038194436
 20
-9.3114040798611111
 30
0.0
 10
-2.8056857638888886
 20
-11.585511610243055
 30
0.0
 10
0.0
 20
-11.585511610243055
 30
0.0
 10
2.8056857638888886
 20
-11.585511610243055
 30
0.0
 10
5.0801378038194436
 20
-9.3114040798611111
 30
0.0
 10
5.0801378038194436
 20
-6.5057183159722216
 30
0.0
 10
5.0801378038194436
 20
-6.5057183159722216
 30
0.0
 10
5.0801378038194436
 20
6.5053738064236102
 30
0.0
 10
5.0801378038194436
 20
6.5053738064236102
 30
0.0
 10
5.0801378038194436
 20
9.3110595703124996
 30
0.0
 10
2.8056857638888886
 20
11.585511610243055
 30
0.0
 10
0.0
 20
11.585511610243055
 30
0.0
  0
ENDBLK
  5
A1
100
AcDbEntity
  8
LAYER_1
100
AcDbBlockEnd
  0
BLOCK
  5
A4
100
AcDbEntity
  8
LAYER_1
 62
     7
100
AcDbBlockBegin
  2
AI9-BLK19
 70
     0
 10
0.0
 20
0.0
 30
0.0
  3
AI9-BLK19
  1

  0
CIRCLE
  5
A6
100
AcDbEntity
  8
LAYER_1
 62
     7
100
AcDbCircle
 10
0.0
 20
-6.505718
 30
0.0
 40
1.5875
  0
SPLINE
  5
A5
100
AcDbEntity
  8
LAYER_1
 62
     7
100
AcDbSpline
210
0.0
220
0.0
230
1.0
 70
     8
 71
     3
 72
    23
 73
    19
 74
     0
 42
0.00000001
 43
0.00000001
 40
0.0
 40
0.0
 40
0.0
 40
0.0
 40
1.0
 40
1.0
 40
1.0
 40
2.0
 40
2.0
 40
2.0
 40
3.0
 40
3.0
 40
3.0
 40
4.0
 40
4.0
 40
4.0
 40
5.0
 40
5.0
 40
5.0
 40
6.0
 40
6.0
 40
6.0
 40
6.0
 10
0.0
 20
11.585511610243055
 30
0.0
 10
-2.8056857638888886
 20
11.585511610243055
 30
0.0
 10
-5.0801378038194436
 20
9.3110595703124996
 30
0.0
 10
-5.0801378038194436
 20
6.5053738064236102
 30
0.0
 10
-5.0801378038194436
 20
6.5053738064236102
 30
0.0
 10
-5.0801378038194436
 20
-6.5057183159722216
 30
0.0
 10
-5.0801378038194436
 20
-6.5057183159722216
 30
0.0
 10
-5.0801378038194436
 20
-9.3114040798611111
 30
0.0
 10
-2.8056857638888886
 20
-11.585511610243055
 30
0.0
 10
0.0
 20
-11.585511610243055
 30
0.0
 10
2.8056857638888886
 20
-11.585511610243055
 30
0.0
 10
5.0801378038194436
 20
-9.3114040798611111
 30
0.0
 10
5.0801378038194436
 20
-6.5057183159722216
 30
0.0
 10
5.0801378038194436
 20
-6.5057183159722216
 30
0.0
 10
5.0801378038194436
 20
6.5053738064236102
 30
0.0
 10
5.0801378038194436
 20
6.5053738064236102
 30
0.0
 10
5.0801378038194436
 20
9.3110595703124996
 30
0.0
 10
2.8056857638888886
 20
11.585511610243055
 30
0.0
 10
0.0
 20
11.585511610243055
 30
0.0
  0
ENDBLK
  5
A7
100
AcDbEntity
  8
LAYER_1
100
AcDbBlockEnd
  0
BLOCK
  5
AA
100
AcDbEntity
  8
LAYER_1
 62
     7
100
AcDbBlockBegin
  2
AI9-BLK20
 70
     0
 10
0.0
 20
0.0
 30
0.0
  3
AI9-BLK20
  1

  0
CIRCLE
  5
AD
100
AcDbEntity
  8
LAYER_1
 62
     7
100
AcDbCircle
 10
0.0
 20
20.994067
 30
0.0
 40
1.5875
  0
SPLINE
  5
AC
100
AcDbEntity
  8
LAYER_1
 62
     7
100
AcDbSpline
210
0.0
220
0.0
230
1.0
 70
     8
 71
     3
 72
    23
 73
    19
 74
     0
 42
0.00000001
 43
0.00000001
 40
0.0
 40
0.0
 40
0.0
 40
0.0
 40
1.0
 40
1.0
 40
1.0
 40
2.0
 40
2.0
 40
2.0
 40
3.0
 40
3.0
 40
3.0
 40
4.0
 40
4.0
 40
4.0
 40
5.0
 40
5.0
 40
5.0
 40
6.0
 40
6.0
 40
6.0
 40
6.0
 10
0.0
 20
26.073860677083331
 30
0.0
 10
-2.8056857638888886
 20
26.073860677083331
 30
0.0
 10
-5.0801378038194436
 20
23.799408637152776
 30
0.0
 10
-5.0801378038194436
 20
20.994067382812499
 30
0.0
 10
-5.0801378038194436
 20
20.994067382812499
 30
0.0
 10
-5.0801378038194436
 20
-20.994067382812499
 30
0.0
 10
-5.0801378038194436
 20
-20.994067382812499
 30
0.0
 10
-5.0801378038194436
 20
-23.799753146701388
 30
0.0
 10
-2.8056857638888886
 20
-26.073860677083331
 30
0.0
 10
0.0
 20
-26.073860677083331
 30
0.0
 10
2.8056857638888886
 20
-26.073860677083331
 30
0.0
 10
5.0801378038194436
 20
-23.799753146701388
 30
0.0
 10
5.0801378038194436
 20
-20.994067382812499
 30
0.0
 10
5.0801378038194436
 20
-20.994067382812499
 30
0.0
 10
5.0801378038194436
 20
20.994067382812499
 30
0.0
 10
5.0801378038194436
 20
20.994067382812499
 30
0.0
 10
5.0801378038194436
 20
23.799408637152776
 30
0.0
 10
2.8056857638888886
 20
26.073860677083331
 30
0.0
 10
0.0
 20
26.073860677083331
 30
0.0
  0
CIRCLE
  5
AB
100
AcDbEntity
  8
LAYER_1
 62
     7
100
AcDbCircle
 10
0.0
 20
-20.994067
 30
0.0
 40
1.5875
  0
ENDBLK
  5
AE
100
AcDbEntity
  8
LAYER_1
100
AcDbBlockEnd
  0
BLOCK
  5
B1
100
AcDbEntity
  8
LAYER_1
 62
     7
100
AcDbBlockBegin
  2
AI9-BLK21
 70
     0
 10
0.0
 20
0.0
 30
0.0
  3
AI9-BLK21
  1

  0
CIRCLE
  5
B4
100
AcDbEntity
  8
LAYER_1
 62
     7
100
AcDbCircle
 10
0.0
 20
20.994067
 30
0.0
 40
1.5875
  0
SPLINE
  5
B3
100
AcDbEntity
  8
LAYER_1
 62
     7
100
AcDbSpline
210
0.0
220
0.0
230
1.0
 70
     8
 71
     3
 72
    23
 73
    19
 74
     0
 42
0.00000001
 43
0.00000001
 40
0.0
 40
0.0
 40
0.0
 40
0.0
 40
1.0
 40
1.0
 40
1.0
 40
2.0
 40
2.0
 40
2.0
 40
3.0
 40
3.0
 40
3.0
 40
4.0
 40
4.0
 40
4.0
 40
5.0
 40
5.0
 40
5.0
 40
6.0
 40
6.0
 40
6.0
 40
6.0
 10
0.0
 20
26.073860677083331
 30
0.0
 10
-2.8056857638888886
 20
26.073860677083331
 30
0.0
 10
-5.0801378038194436
 20
23.799408637152776
 30
0.0
 10
-5.0801378038194436
 20
20.994067382812499
 30
0.0
 10
-5.0801378038194436
 20
20.994067382812499
 30
0.0
 10
-5.0801378038194436
 20
-20.994067382812499
 30
0.0
 10
-5.0801378038194436
 20
-20.994067382812499
 30
0.0
 10
-5.0801378038194436
 20
-23.799753146701388
 30
0.0
 10
-2.8056857638888886
 20
-26.073860677083331
 30
0.0
 10
0.0
 20
-26.073860677083331
 30
0.0
 10
2.8056857638888886
 20
-26.073860677083331
 30
0.0
 10
5.0801378038194436
 20
-23.799753146701388
 30
0.0
 10
5.0801378038194436
 20
-20.994067382812499
 30
0.0
 10
5.0801378038194436
 20
-20.994067382812499
 30
0.0
 10
5.0801378038194436
 20
20.994067382812499
 30
0.0
 10
5.0801378038194436
 20
20.994067382812499
 30
0.0
 10
5.0801378038194436
 20
23.799408637152776
 30
0.0
 10
2.8056857638888886
 20
26.073860677083331
 30
0.0
 10
0.0
 20
26.073860677083331
 30
0.0
  0
CIRCLE
  5
B2
100
AcDbEntity
  8
LAYER_1
 62
     7
100
AcDbCircle
 10
0.0
 20
-20.994067
 30
0.0
 40
1.5875
  0
ENDBLK
  5
B5
100
AcDbEntity
  8
LAYER_1
100
AcDbBlockEnd
  0
BLOCK
  5
B8
100
AcDbEntity
  8
LAYER_1
 62
     7
100
AcDbBlockBegin
  2
AI9-BLK22
 70
     0
 10
0.0
 20
0.0
 30
0.0
  3
AI9-BLK22
  1

  0
CIRCLE
  5
BB
100
AcDbEntity
  8
LAYER_1
 62
     7
100
AcDbCircle
 10
0.0
 20
13.886146
 30
0.0
 40
1.5875
  0
SPLINE
  5
BA
100
AcDbEntity
  8
LAYER_1
 62
     7
100
AcDbSpline
210
0.0
220
0.0
230
1.0
 70
     8
 71
     3
 72
    35
 73
    31
 74
     0
 42
0.00000001
 43
0.00000001
 40
0.0
 40
0.0
 40
0.0
 40
0.0
 40
1.0
 40
1.0
 40
1.0
 40
2.0
 40
2.0
 40
2.0
 40
3.0
 40
3.0
 40
3.0
 40
4.0
 40
4.0
 40
4.0
 40
5.0
 40
5.0
 40
5.0
 40
6.0
 40
6.0
 40
6.0
 40
7.0
 40
7.0
 40
7.0
 40
8.0
 40
8.0
 40
8.0
 40
9.0
 40
9.0
 40
9.0
 40
10.0
 40
10.0
 40
10.0
 40
10.0
 10
5.0801378038194436
 20
13.886146375868055
 30
0.0
 10
5.0801378038194436
 20
16.691832139756944
 30
0.0
 10
2.8056857638888886
 20
18.966284179687499
 30
0.0
 10
0.0
 20
18.966284179687499
 30
0.0
 10
-2.8056857638888886
 20
18.966284179687499
 30
0.0
 10
-5.0801378038194436
 20
16.691832139756944
 30
0.0
 10
-5.0801378038194436
 20
13.886146375868055
 30
0.0
 10
-5.0801378038194436
 20
13.886146375868055
 30
0.0
 10
-5.0801378038194436
 20
-13.857896592881943
 30
0.0
 10
-5.0801378038194436
 20
-13.857896592881943
 30
0.0
 10
-5.0801378038194436
 20
-13.857896592881943
 30
0.0
 10
-5.0787597656249996
 20
-13.857896592881943
 30
0.0
 10
-5.0787597656249996
 20
-13.857896592881943
 30
0.0
 10
-5.0787597656249996
 20
-13.867542860243054
 30
0.0
 10
-5.0801378038194436
 20
-13.876844618055554
 30
0.0
 10
-5.0801378038194436
 20
-13.886490885416665
 30
0.0
 10
-5.0801378038194436
 20
-16.692176649305555
 30
0.0
 10
-2.8056857638888886
 20
-18.966284179687499
 30
0.0
 10
0.0
 20
-18.966284179687499
 30
0.0
 10
2.8056857638888886
 20
-18.966284179687499
 30
0.0
 10
5.0801378038194436
 20
-16.692176649305555
 30
0.0
 10
5.0801378038194436
 20
-13.886490885416665
 30
0.0
 10
5.0801378038194436
 20
-13.876844618055554
 30
0.0
 10
5.0787597656249996
 20
-13.867542860243054
 30
0.0
 10
5.0787597656249996
 20
-13.857896592881943
 30
0.0
 10
5.0787597656249996
 20
-13.857896592881943
 30
0.0
 10
5.0801378038194436
 20
-13.857896592881943
 30
0.0
 10
5.0801378038194436
 20
-13.857896592881943
 30
0.0
 10
5.0801378038194436
 20
-13.857896592881943
 30
0.0
 10
5.0801378038194436
 20
13.886146375868055
 30
0.0
 10
5.0801378038194436
 20
13.886146375868055
 30
0.0
  0
CIRCLE
  5
B9
100
AcDbEntity
  8
LAYER_1
 62
     7
100
AcDbCircle
 10
0.0
 20
-13.886491
 30
0.0
 40
1.5875
  0
ENDBLK
  5
BC
100
AcDbEntity
  8
LAYER_1
100
AcDbBlockEnd
  0
BLOCK
  5
BF
100
AcDbEntity
  8
LAYER_1
 62
     7
100
AcDbBlockBegin
  2
AI9-BLK23
 70
     0
 10
0.0
 20
0.0
 30
0.0
  3
AI9-BLK23
  1

  0
CIRCLE
  5
C1
100
AcDbEntity
  8
LAYER_1
 62
     7
100
AcDbCircle
 10
0.0
 20
-6.958404
 30
0.0
 40
1.5875
  0
SPLINE
  5
C0
100
AcDbEntity
  8
LAYER_1
 62
     7
100
AcDbSpline
210
0.0
220
0.0
230
1.0
 70
     8
 71
     3
 72
    23
 73
    19
 74
     0
 42
0.00000001
 43
0.00000001
 40
0.0
 40
0.0
 40
0.0
 40
0.0
 40
1.0
 40
1.0
 40
1.0
 40
2.0
 40
2.0
 40
2.0
 40
3.0
 40
3.0
 40
3.0
 40
4.0
 40
4.0
 40
4.0
 40
5.0
 40
5.0
 40
5.0
 40
6.0
 40
6.0
 40
6.0
 40
6.0
 10
0.0
 20
12.038197157118054
 30
0.0
 10
-2.8056857638888886
 20
12.038197157118054
 30
0.0
 10
-5.0801378038194436
 20
9.7640896267361104
 30
0.0
 10
-5.0801378038194436
 20
6.9584038628472218
 30
0.0
 10
-5.0801378038194436
 20
6.9584038628472218
 30
0.0
 10
-5.0801378038194436
 20
-6.9584038628472218
 30
0.0
 10
-5.0801378038194436
 20
-6.9584038628472218
 30
0.0
 10
-5.0801378038194436
 20
-9.7640896267361104
 30
0.0
 10
-2.8056857638888886
 20
-12.038197157118054
 30
0.0
 10
0.0
 20
-12.038197157118054
 30
0.0
 10
2.8056857638888886
 20
-12.038197157118054
 30
0.0
 10
5.0801378038194436
 20
-9.7640896267361104
 30
0.0
 10
5.0801378038194436
 20
-6.9584038628472218
 30
0.0
 10
5.0801378038194436
 20
-6.9584038628472218
 30
0.0
 10
5.0801378038194436
 20
6.9584038628472218
 30
0.0
 10
5.0801378038194436
 20
6.9584038628472218
 30
0.0
 10
5.0801378038194436
 20
9.7640896267361104
 30
0.0
 10
2.8056857638888886
 20
12.038197157118054
 30
0.0
 10
0.0
 20
12.038197157118054
 30
0.0
  0
ENDBLK
  5
C2
100
AcDbEntity
  8
LAYER_1
100
AcDbBlockEnd
  0
BLOCK
  5
C5
100
AcDbEntity
  8
LAYER_1
 62
     7
100
AcDbBlockBegin
  2
AI9-BLK24
 70
     0
 10
0.0
 20
0.0
 30
0.0
  3
AI9-BLK24
  1

  0
CIRCLE
  5
C7
100
AcDbEntity
  8
LAYER_1
 62
     7
100
AcDbCircle
 10
0.0
 20
-6.958404
 30
0.0
 40
1.5875
  0
SPLINE
  5
C6
100
AcDbEntity
  8
LAYER_1
 62
     7
100
AcDbSpline
210
0.0
220
0.0
230
1.0
 70
     8
 71
     3
 72
    23
 73
    19
 74
     0
 42
0.00000001
 43
0.00000001
 40
0.0
 40
0.0
 40
0.0
 40
0.0
 40
1.0
 40
1.0
 40
1.0
 40
2.0
 40
2.0
 40
2.0
 40
3.0
 40
3.0
 40
3.0
 40
4.0
 40
4.0
 40
4.0
 40
5.0
 40
5.0
 40
5.0
 40
6.0
 40
6.0
 40
6.0
 40
6.0
 10
0.0
 20
12.038197157118054
 30
0.0
 10
-2.8056857638888886
 20
12.038197157118054
 30
0.0
 10
-5.0801378038194436
 20
9.7640896267361104
 30
0.0
 10
-5.0801378038194436
 20
6.9584038628472218
 30
0.0
 10
-5.0801378038194436
 20
6.9584038628472218
 30
0.0
 10
-5.0801378038194436
 20
-6.9584038628472218
 30
0.0
 10
-5.0801378038194436
 20
-6.9584038628472218
 30
0.0
 10
-5.0801378038194436
 20
-9.7640896267361104
 30
0.0
 10
-2.8056857638888886
 20
-12.038197157118054
 30
0.0
 10
0.0
 20
-12.038197157118054
 30
0.0
 10
2.8056857638888886
 20
-12.038197157118054
 30
0.0
 10
5.0801378038194436
 20
-9.7640896267361104
 30
0.0
 10
5.0801378038194436
 20
-6.9584038628472218
 30
0.0
 10
5.0801378038194436
 20
-6.9584038628472218
 30
0.0
 10
5.0801378038194436
 20
6.9584038628472218
 30
0.0
 10
5.0801378038194436
 20
6.9584038628472218
 30
0.0
 10
5.0801378038194436
 20
9.7640896267361104
 30
0.0
 10
2.8056857638888886
 20
12.038197157118054
 30
0.0
 10
0.0
 20
12.038197157118054
 30
0.0
  0
ENDBLK
  5
C8
100
AcDbEntity
  8
LAYER_1
100
AcDbBlockEnd
  0
BLOCK
  5
CB
100
AcDbEntity
  8
LAYER_1
 62
     7
100
AcDbBlockBegin
  2
AI9-BLK25
 70
     0
 10
0.0
 20
0.0
 30
0.0
  3
AI9-BLK25
  1

  0
CIRCLE
  5
CE
100
AcDbEntity
  8
LAYER_1
 62
     7
100
AcDbCircle
 10
0.0
 20
16.909562
 30
0.0
 40
1.5875
  0
SPLINE
  5
CD
100
AcDbEntity
  8
LAYER_1
 62
     7
100
AcDbSpline
210
0.0
220
0.0
230
1.0
 70
     8
 71
     3
 72
    23
 73
    19
 74
     0
 42
0.00000001
 43
0.00000001
 40
0.0
 40
0.0
 40
0.0
 40
0.0
 40
1.0
 40
1.0
 40
1.0
 40
2.0
 40
2.0
 40
2.0
 40
3.0
 40
3.0
 40
3.0
 40
4.0
 40
4.0
 40
4.0
 40
5.0
 40
5.0
 40
5.0
 40
6.0
 40
6.0
 40
6.0
 40
6.0
 10
0.0
 20
21.98969997829861
 30
0.0
 10
-2.8056857638888886
 20
21.98969997829861
 30
0.0
 10
-5.0801378038194436
 20
19.715247938368055
 30
0.0
 10
-5.0801378038194436
 20
16.909562174479166
 30
0.0
 10
-5.0801378038194436
 20
16.909562174479166
 30
0.0
 10
-5.0801378038194436
 20
-16.909906684027778
 30
0.0
 10
-5.0801378038194436
 20
-16.909906684027778
 30
0.0
 10
-5.0801378038194436
 20
-19.715592447916666
 30
0.0
 10
-2.8056857638888886
 20
-21.98969997829861
 30
0.0
 10
0.0
 20
-21.98969997829861
 30
0.0
 10
2.8056857638888886
 20
-21.98969997829861
 30
0.0
 10
5.0801378038194436
 20
-19.715592447916666
 30
0.0
 10
5.0801378038194436
 20
-16.909906684027778
 30
0.0
 10
5.0801378038194436
 20
-16.909906684027778
 30
0.0
 10
5.0801378038194436
 20
16.909562174479166
 30
0.0
 10
5.0801378038194436
 20
16.909562174479166
 30
0.0
 10
5.0801378038194436
 20
19.715247938368055
 30
0.0
 10
2.8056857638888886
 20
21.98969997829861
 30
0.0
 10
0.0
 20
21.98969997829861
 30
0.0
  0
CIRCLE
  5
CC
100
AcDbEntity
  8
LAYER_1
 62
     7
100
AcDbCircle
 10
0.0
 20
-16.909907
 30
0.0
 40
1.5875
  0
ENDBLK
  5
CF
100
AcDbEntity
  8
LAYER_1
100
AcDbBlockEnd
  0
BLOCK
  5
D2
100
AcDbEntity
  8
LAYER_1
 62
     7
100
AcDbBlockBegin
  2
AI9-BLK26
 70
     0
 10
0.0
 20
0.0
 30
0.0
  3
AI9-BLK26
  1

  0
CIRCLE
  5
D5
100
AcDbEntity
  8
LAYER_1
 62
     7
100
AcDbCircle
 10
0.0
 20
16.909562
 30
0.0
 40
1.5875
  0
SPLINE
  5
D4
100
AcDbEntity
  8
LAYER_1
 62
     7
100
AcDbSpline
210
0.0
220
0.0
230
1.0
 70
     8
 71
     3
 72
    23
 73
    19
 74
     0
 42
0.00000001
 43
0.00000001
 40
0.0
 40
0.0
 40
0.0
 40
0.0
 40
1.0
 40
1.0
 40
1.0
 40
2.0
 40
2.0
 40
2.0
 40
3.0
 40
3.0
 40
3.0
 40
4.0
 40
4.0
 40
4.0
 40
5.0
 40
5.0
 40
5.0
 40
6.0
 40
6.0
 40
6.0
 40
6.0
 10
0.0
 20
21.98969997829861
 30
0.0
 10
-2.8056857638888886
 20
21.98969997829861
 30
0.0
 10
-5.0801378038194436
 20
19.715247938368055
 30
0.0
 10
-5.0801378038194436
 20
16.909562174479166
 30
0.0
 10
-5.0801378038194436
 20
16.909562174479166
 30
0.0
 10
-5.0801378038194436
 20
-16.909906684027778
 30
0.0
 10
-5.0801378038194436
 20
-16.909906684027778
 30
0.0
 10
-5.0801378038194436
 20
-19.715592447916666
 30
0.0
 10
-2.8056857638888886
 20
-21.98969997829861
 30
0.0
 10
0.0
 20
-21.98969997829861
 30
0.0
 10
2.8056857638888886
 20
-21.98969997829861
 30
0.0
 10
5.0801378038194436
 20
-19.715592447916666
 30
0.0
 10
5.0801378038194436
 20
-16.909906684027778
 30
0.0
 10
5.0801378038194436
 20
-16.909906684027778
 30
0.0
 10
5.0801378038194436
 20
16.909562174479166
 30
0.0
 10
5.0801378038194436
 20
16.909562174479166
 30
0.0
 10
5.0801378038194436
 20
19.715247938368055
 30
0.0
 10
2.8056857638888886
 20
21.98969997829861
 30
0.0
 10
0.0
 20
21.98969997829861
 30
0.0
  0
CIRCLE
  5
D3
100
AcDbEntity
  8
LAYER_1
 62
     7
100
AcDbCircle
 10
0.0
 20
-16.909907
 30
0.0
 40
1.5875
  0
ENDBLK
  5
D6
100
AcDbEntity
  8
LAYER_1
100
AcDbBlockEnd
  0
BLOCK
  5
D9
100
AcDbEntity
  8
LAYER_1
 62
     7
100
AcDbBlockBegin
  2
AI9-BLK27
 70
     0
 10
0.0
 20
0.0
 30
0.0
  3
AI9-BLK27
  1

  0
CIRCLE
  5
DC
100
AcDbEntity
  8
LAYER_1
 62
     7
100
AcDbCircle
 10
-0.000345
 20
8.368998
 30
0.0
 40
1.5875
  0
SPLINE
  5
DB
100
AcDbEntity
  8
LAYER_1
 62
     7
100
AcDbSpline
210
0.0
220
0.0
230
1.0
 70
     8
 71
     3
 72
    23
 73
    19
 74
     0
 42
0.00000001
 43
0.00000001
 40
0.0
 40
0.0
 40
0.0
 40
0.0
 40
1.0
 40
1.0
 40
1.0
 40
2.0
 40
2.0
 40
2.0
 40
3.0
 40
3.0
 40
3.0
 40
4.0
 40
4.0
 40
4.0
 40
5.0
 40
5.0
 40
5.0
 40
6.0
 40
6.0
 40
6.0
 40
6.0
 10
-0.0003445095486111
 20
13.44913601345486
 30
0.0
 10
-2.8053412543402776
 20
13.44913601345486
 30
0.0
 10
-5.079793294270833
 20
11.174683973524305
 30
0.0
 10
-5.079793294270833
 20
8.3689982096354161
 30
0.0
 10
-5.079793294270833
 20
8.3689982096354161
 30
0.0
 10
-5.079793294270833
 20
-8.3693427191840275
 30
0.0
 10
-5.079793294270833
 20
-8.3693427191840275
 30
0.0
 10
-5.079793294270833
 20
-11.175028483072916
 30
0.0
 10
-2.8053412543402776
 20
-13.44913601345486
 30
0.0
 10
-0.0003445095486111
 20
-13.44913601345486
 30
0.0
 10
2.8053412543402776
 20
-13.44913601345486
 30
0.0
 10
5.079793294270833
 20
-11.175028483072916
 30
0.0
 10
5.079793294270833
 20
-8.3693427191840275
 30
0.0
 10
5.079793294270833
 20
-8.3693427191840275
 30
0.0
 10
5.079793294270833
 20
8.3689982096354161
 30
0.0
 10
5.079793294270833
 20
8.3689982096354161
 30
0.0
 10
5.079793294270833
 20
11.174683973524305
 30
0.0
 10
2.8053412543402776
 20
13.44913601345486
 30
0.0
 10
-0.0003445095486111
 20
13.44913601345486
 30
0.0
  0
CIRCLE
  5
DA
100
AcDbEntity
  8
LAYER_1
 62
     7
100
AcDbCircle
 10
-0.000345
 20
-8.369343
 30
0.0
 40
1.5875
  0
ENDBLK
  5
DD
100
AcDbEntity
  8
LAYER_1
100
AcDbBlockEnd
  0
BLOCK
  5
E0
100
AcDbEntity
  8
LAYER_1
 62
     7
100
AcDbBlockBegin
  2
AI9-BLK28
 70
     0
 10
0.0
 20
0.0
 30
0.0
  3
AI9-BLK28
  1

  0
CIRCLE
  5
E2
100
AcDbEntity
  8
LAYER_1
 62
     7
100
AcDbCircle
 10
-0.000172
 20
-6.018237
 30
0.0
 40
1.5875
  0
SPLINE
  5
E1
100
AcDbEntity
  8
LAYER_1
 62
     7
100
AcDbSpline
210
0.0
220
0.0
230
1.0
 70
     8
 71
     3
 72
    23
 73
    19
 74
     0
 42
0.00000001
 43
0.00000001
 40
0.0
 40
0.0
 40
0.0
 40
0.0
 40
1.0
 40
1.0
 40
1.0
 40
2.0
 40
2.0
 40
2.0
 40
3.0
 40
3.0
 40
3.0
 40
4.0
 40
4.0
 40
4.0
 40
5.0
 40
5.0
 40
5.0
 40
6.0
 40
6.0
 40
6.0
 40
6.0
 10
-0.0001722547743056
 20
11.098375108506943
 30
0.0
 10
-2.8055135091145829
 20
11.098375108506943
 30
0.0
 10
-5.0799655490451388
 20
8.8239230685763879
 30
0.0
 10
-5.0799655490451388
 20
6.0182373046874993
 30
0.0
 10
-5.0799655490451388
 20
6.0182373046874993
 30
0.0
 10
-5.0799655490451388
 20
-6.0182373046874993
 30
0.0
 10
-5.0799655490451388
 20
-6.0182373046874993
 30
0.0
 10
-5.0799655490451388
 20
-8.8239230685763879
 30
0.0
 10
-2.8055135091145829
 20
-11.098375108506943
 30
0.0
 10
-0.0001722547743056
 20
-11.098375108506943
 30
0.0
 10
2.8055135091145829
 20
-11.098375108506943
 30
0.0
 10
5.0799655490451388
 20
-8.8239230685763879
 30
0.0
 10
5.0799655490451388
 20
-6.0182373046874993
 30
0.0
 10
5.0799655490451388
 20
-6.0182373046874993
 30
0.0
 10
5.0799655490451388
 20
6.0182373046874993
 30
0.0
 10
5.0799655490451388
 20
6.0182373046874993
 30
0.0
 10
5.0799655490451388
 20
8.8239230685763879
 30
0.0
 10
2.8055135091145829
 20
11.098375108506943
 30
0.0
 10
-0.0001722547743056
 20
11.098375108506943
 30
0.0
  0
ENDBLK
  5
E3
100
AcDbEntity
  8
LAYER_1
100
AcDbBlockEnd
  0
BLOCK
  5
E6
100
AcDbEntity
  8
LAYER_1
 62
     7
100
AcDbBlockBegin
  2
AI9-BLK29
 70
     0
 10
0.0
 20
0.0
 30
0.0
  3
AI9-BLK29
  1

  0
CIRCLE
  5
E8
100
AcDbEntity
  8
LAYER_1
 62
     7
100
AcDbCircle
 10
-0.000172
 20
-6.018237
 30
0.0
 40
1.5875
  0
SPLINE
  5
E7
100
AcDbEntity
  8
LAYER_1
 62
     7
100
AcDbSpline
210
0.0
220
0.0
230
1.0
 70
     8
 71
     3
 72
    23
 73
    19
 74
     0
 42
0.00000001
 43
0.00000001
 40
0.0
 40
0.0
 40
0.0
 40
0.0
 40
1.0
 40
1.0
 40
1.0
 40
2.0
 40
2.0
 40
2.0
 40
3.0
 40
3.0
 40
3.0
 40
4.0
 40
4.0
 40
4.0
 40
5.0
 40
5.0
 40
5.0
 40
6.0
 40
6.0
 40
6.0
 40
6.0
 10
-0.0001722547743056
 20
11.098375108506943
 30
0.0
 10
-2.8055135091145829
 20
11.098375108506943
 30
0.0
 10
-5.0799655490451388
 20
8.8239230685763879
 30
0.0
 10
-5.0799655490451388
 20
6.0182373046874993
 30
0.0
 10
-5.0799655490451388
 20
6.0182373046874993
 30
0.0
 10
-5.0799655490451388
 20
-6.0182373046874993
 30
0.0
 10
-5.0799655490451388
 20
-6.0182373046874993
 30
0.0
 10
-5.0799655490451388
 20
-8.8239230685763879
 30
0.0
 10
-2.8055135091145829
 20
-11.098375108506943
 30
0.0
 10
-0.0001722547743056
 20
-11.098375108506943
 30
0.0
 10
2.8055135091145829
 20
-11.098375108506943
 30
0.0
 10
5.0799655490451388
 20
-8.8239230685763879
 30
0.0
 10
5.0799655490451388
 20
-6.0182373046874993
 30
0.0
 10
5.0799655490451388
 20
-6.0182373046874993
 30
0.0
 10
5.0799655490451388
 20
6.0182373046874993
 30
0.0
 10
5.0799655490451388
 20
6.0182373046874993
 30
0.0
 10
5.0799655490451388
 20
8.8239230685763879
 30
0.0
 10
2.8055135091145829
 20
11.098375108506943
 30
0.0
 10
-0.0001722547743056
 20
11.098375108506943
 30
0.0
  0
ENDBLK
  5
E9
100
AcDbEntity
  8
LAYER_1
100
AcDbBlockEnd
  0
BLOCK
  5
EC
100
AcDbEntity
  8
LAYER_1
 62
     7
100
AcDbBlockBegin
  2
AI9-BLK30
 70
     0
 10
0.0
 20
0.0
 30
0.0
  3
AI9-BLK30
  1

  0
CIRCLE
  5
EF
100
AcDbEntity
  8
LAYER_1
 62
     7
100
AcDbCircle
 10
-0.104731
 20
18.49689
 30
0.0
 40
1.58787
  0
CIRCLE
  5
EE
100
AcDbEntity
  8
LAYER_1
 62
     7
100
AcDbCircle
 10
0.104731
 20
-18.497234
 30
0.0
 40
1.587183
  0
SPLINE
  5
ED
100
AcDbEntity
  8
LAYER_1
 62
     7
100
AcDbSpline
210
0.0
220
0.0
230
1.0
 70
     8
 71
     3
 72
    23
 73
    19
 74
     0
 42
0.00000001
 43
0.00000001
 40
0.0
 40
0.0
 40
0.0
 40
0.0
 40
1.0
 40
1.0
 40
1.0
 40
2.0
 40
2.0
 40
2.0
 40
3.0
 40
3.0
 40
3.0
 40
4.0
 40
4.0
 40
4.0
 40
5.0
 40
5.0
 40
5.0
 40
6.0
 40
6.0
 40
6.0
 40
6.0
 10
4.9757514105902771
 20
18.525828721788194
 30
0.0
 10
4.9599039713541666
 20
21.331514485677083
 30
0.0
 10
2.6723605685763885
 20
23.592875162760414
 30
0.0
 10
-0.1333251953125
 20
23.577027723524303
 30
0.0
 10
-2.9390109592013887
 20
23.561180284288191
 30
0.0
 10
-5.2007161458333329
 20
21.273636881510416
 30
0.0
 10
-5.1845241970486109
 20
18.468295627170136
 30
0.0
 10
-5.1845241970486109
 20
18.468295627170136
 30
0.0
 10
-4.9754069010416666
 20
-18.525828721788194
 30
0.0
 10
-4.9754069010416666
 20
-18.525828721788194
 30
0.0
 10
-4.9592149522569438
 20
-21.331514485677083
 30
0.0
 10
-2.6720160590277775
 20
-23.592875162760414
 30
0.0
 10
0.1340142144097222
 20
-23.577027723524303
 30
0.0
 10
2.9390109592013887
 20
-23.561180284288191
 30
0.0
 10
5.2010606553819443
 20
-21.273981391059024
 30
0.0
 10
5.1845241970486109
 20
-18.468295627170136
 30
0.0
 10
5.1845241970486109
 20
-18.468295627170136
 30
0.0
 10
4.9757514105902771
 20
18.525828721788194
 30
0.0
 10
4.9757514105902771
 20
18.525828721788194
 30
0.0
  0
ENDBLK
  5
F0
100
AcDbEntity
  8
LAYER_1
100
AcDbBlockEnd
  0
BLOCK
  5
F3
100
AcDbEntity
  8
LAYER_1
 62
     7
100
AcDbBlockBegin
  2
AI9-BLK31
 70
     0
 10
0.0
 20
0.0
 30
0.0
  3
AI9-BLK31
  1

  0
CIRCLE
  5
F6
100
AcDbEntity
  8
LAYER_1
 62
     7
100
AcDbCircle
 10
-0.104903
 20
18.496718
 30
0.0
 40
1.58787
  0
CIRCLE
  5
F5
100
AcDbEntity
  8
LAYER_1
 62
     7
100
AcDbCircle
 10
0.104559
 20
-18.497062
 30
0.0
 40
1.587183
  0
SPLINE
  5
F4
100
AcDbEntity
  8
LAYER_1
 62
     7
100
AcDbSpline
210
0.0
220
0.0
230
1.0
 70
     8
 71
     3
 72
    23
 73
    19
 74
     0
 42
0.00000001
 43
0.00000001
 40
0.0
 40
0.0
 40
0.0
 40
0.0
 40
1.0
 40
1.0
 40
1.0
 40
2.0
 40
2.0
 40
2.0
 40
3.0
 40
3.0
 40
3.0
 40
4.0
 40
4.0
 40
4.0
 40
5.0
 40
5.0
 40
5.0
 40
6.0
 40
6.0
 40
6.0
 40
6.0
 10
4.9755791558159714
 20
18.525656467013889
 30
0.0
 10
4.9597317165798609
 20
21.331342230902777
 30
0.0
 10
2.6721883138020832
 20
23.592702907986109
 30
0.0
 10
-0.1334974500868056
 20
23.576855468749997
 30
0.0
 10
-2.9388387044270829
 20
23.561008029513886
 30
0.0
 10
-5.2008884006076386
 20
21.273464626736111
 30
0.0
 10
-5.1843519422743052
 20
18.46812337239583
 30
0.0
 10
-5.1843519422743052
 20
18.46812337239583
 30
0.0
 10
-4.9755791558159714
 20
-18.525656467013889
 30
0.0
 10
-4.9755791558159714
 20
-18.525656467013889
 30
0.0
 10
-4.959042697482638
 20
-21.331342230902777
 30
0.0
 10
-2.6721883138020832
 20
-23.592702907986109
 30
0.0
 10
0.1338419596354167
 20
-23.576855468749997
 30
0.0
 10
2.9388387044270829
 20
-23.561008029513886
 30
0.0
 10
5.2008884006076386
 20
-21.273809136284719
 30
0.0
 10
5.1843519422743052
 20
-18.46812337239583
 30
0.0
 10
5.1843519422743052
 20
-18.46812337239583
 30
0.0
 10
4.9755791558159714
 20
18.525656467013889
 30
0.0
 10
4.9755791558159714
 20
18.525656467013889
 30
0.0
  0
ENDBLK
  5
F7
100
AcDbEntity
  8
LAYER_1
100
AcDbBlockEnd
  0
BLOCK
  5
FA
100
AcDbEntity
  8
LAYER_1
 62
     7
100
AcDbBlockBegin
  2
AI9-BLK32
 70
     0
 10
0.0
 20
0.0
 30
0.0
  3
AI9-BLK32
  1

  0
CIRCLE
  5
FD
100
AcDbEntity
  8
LAYER_1
 62
     7
100
AcDbCircle
 10
-0.092329
 20
16.293751
 30
0.0
 40
1.587698
  0
CIRCLE
  5
FC
100
AcDbEntity
  8
LAYER_1
 62
     7
100
AcDbCircle
 10
0.092156
 20
-16.294096
 30
0.0
 40
1.587525
  0
SPLINE
  5
FB
100
AcDbEntity
  8
LAYER_1
 62
     7
100
AcDbSpline
210
0.0
220
0.0
230
1.0
 70
     8
 71
     3
 72
    23
 73
    19
 74
     0
 42
0.00000001
 43
0.00000001
 40
0.0
 40
0.0
 40
0.0
 40
0.0
 40
1.0
 40
1.0
 40
1.0
 40
2.0
 40
2.0
 40
2.0
 40
3.0
 40
3.0
 40
3.0
 40
4.0
 40
4.0
 40
4.0
 40
5.0
 40
5.0
 40
5.0
 40
6.0
 40
6.0
 40
6.0
 40
6.0
 10
4.9876369900173607
 20
16.322345648871526
 30
0.0
 10
4.9717895507812493
 20
19.128031412760414
 30
0.0
 10
2.684590657552083
 20
21.389392089843749
 30
0.0
 10
-0.1210951063368056
 20
21.373544650607638
 30
0.0
 10
-2.9264363606770831
 20
21.357697211371526
 30
0.0
 10
-5.1881415473090273
 20
19.070498318142359
 30
0.0
 10
-5.1722941080729159
 20
16.264812554253471
 30
0.0
 10
-5.1722941080729159
 20
16.264812554253471
 30
0.0
 10
-4.9876369900173607
 20
-16.322690158420137
 30
0.0
 10
-4.9876369900173607
 20
-16.322690158420137
 30
0.0
 10
-4.9717895507812493
 20
-19.128375922309026
 30
0.0
 10
-2.684590657552083
 20
-21.389392089843749
 30
0.0
 10
0.1207505967881944
 20
-21.373544650607638
 30
0.0
 10
2.9264363606770831
 20
-21.358041720920138
 30
0.0
 10
5.1877970377604159
 20
-19.070842827690971
 30
0.0
 10
5.1722941080729159
 20
-16.265157063802082
 30
0.0
 10
5.1722941080729159
 20
-16.265157063802082
 30
0.0
 10
4.9876369900173607
 20
16.322345648871526
 30
0.0
 10
4.9876369900173607
 20
16.322345648871526
 30
0.0
  0
ENDBLK
  5
FE
100
AcDbEntity
  8
LAYER_1
100
AcDbBlockEnd
  0
BLOCK
  5
101
100
AcDbEntity
  8
LAYER_1
 62
     7
100
AcDbBlockBegin
  2
AI9-BLK33
 70
     0
 10
0.0
 20
0.0
 30
0.0
  3
AI9-BLK33
  1

  0
CIRCLE
  5
103
100
AcDbEntity
  8
LAYER_1
 62
     7
100
AcDbCircle
 10
0.033934
 20
-6.018065
 30
0.0
 40
1.587699
  0
SPLINE
  5
102
100
AcDbEntity
  8
LAYER_1
 62
     7
100
AcDbSpline
210
0.0
220
0.0
230
1.0
 70
     8
 71
     3
 72
    23
 73
    19
 74
     0
 42
0.00000001
 43
0.00000001
 40
0.0
 40
0.0
 40
0.0
 40
0.0
 40
1.0
 40
1.0
 40
1.0
 40
2.0
 40
2.0
 40
2.0
 40
3.0
 40
3.0
 40
3.0
 40
4.0
 40
4.0
 40
4.0
 40
5.0
 40
5.0
 40
5.0
 40
6.0
 40
6.0
 40
6.0
 40
6.0
 10
5.0460313585069443
 20
6.0471761067708325
 30
0.0
 10
5.0298394097222214
 20
8.8525173611111097
 30
0.0
 10
2.7426405164930552
 20
11.113878038194443
 30
0.0
 10
-0.0630452473958333
 20
11.098030598958331
 30
0.0
 10
-2.868386501736111
 20
11.082183159722222
 30
0.0
 10
-5.1300916883680552
 20
8.7949842664930546
 30
0.0
 10
-5.1138997395833332
 20
5.9896430121527775
 30
0.0
 10
-5.1138997395833332
 20
5.9896430121527775
 30
0.0
 10
-5.0460313585069443
 20
-6.046831597222222
 30
0.0
 10
-5.0460313585069443
 20
-6.046831597222222
 30
0.0
 10
-5.0301839192708329
 20
-8.8525173611111097
 30
0.0
 10
-2.7426405164930552
 20
-11.113878038194443
 30
0.0
 10
0.0627007378472222
 20
-11.098030598958331
 30
0.0
 10
2.8680419921874996
 20
-11.082183159722222
 30
0.0
 10
5.1300916883680552
 20
-8.7949842664930546
 30
0.0
 10
5.1138997395833332
 20
-5.9896430121527775
 30
0.0
 10
5.1138997395833332
 20
-5.9896430121527775
 30
0.0
 10
5.0460313585069443
 20
6.0471761067708325
 30
0.0
 10
5.0460313585069443
 20
6.0471761067708325
 30
0.0
  0
ENDBLK
  5
104
100
AcDbEntity
  8
LAYER_1
100
AcDbBlockEnd
  0
BLOCK
  5
107
100
AcDbEntity
  8
LAYER_1
 62
     7
100
AcDbBlockBegin
  2
AI9-BLK34
 70
     0
 10
0.0
 20
0.0
 30
0.0
  3
AI9-BLK34
  1

  0
CIRCLE
  5
109
100
AcDbEntity
  8
LAYER_1
 62
     7
100
AcDbCircle
 10
0.033762
 20
-6.018065
 30
0.0
 40
1.587526
  0
SPLINE
  5
108
100
AcDbEntity
  8
LAYER_1
 62
     7
100
AcDbSpline
210
0.0
220
0.0
230
1.0
 70
     8
 71
     3
 72
    23
 73
    19
 74
     0
 42
0.00000001
 43
0.00000001
 40
0.0
 40
0.0
 40
0.0
 40
0.0
 40
1.0
 40
1.0
 40
1.0
 40
2.0
 40
2.0
 40
2.0
 40
3.0
 40
3.0
 40
3.0
 40
4.0
 40
4.0
 40
4.0
 40
5.0
 40
5.0
 40
5.0
 40
6.0
 40
6.0
 40
6.0
 40
6.0
 10
5.0456868489583329
 20
6.0471761067708325
 30
0.0
 10
5.0298394097222214
 20
8.8525173611111097
 30
0.0
 10
2.7422960069444442
 20
11.113878038194443
 30
0.0
 10
-0.0633897569444444
 20
11.098030598958331
 30
0.0
 10
-2.868386501736111
 20
11.082183159722222
 30
0.0
 10
-5.1304361979166666
 20
8.7949842664930546
 30
0.0
 10
-5.1138997395833332
 20
5.9896430121527775
 30
0.0
 10
-5.1138997395833332
 20
5.9896430121527775
 30
0.0
 10
-5.0463758680555548
 20
-6.046831597222222
 30
0.0
 10
-5.0463758680555548
 20
-6.046831597222222
 30
0.0
 10
-5.0305284288194443
 20
-8.8525173611111097
 30
0.0
 10
-2.7429850260416666
 20
-11.113878038194443
 30
0.0
 10
0.0627007378472222
 20
-11.098030598958331
 30
0.0
 10
2.8676974826388886
 20
-11.082183159722222
 30
0.0
 10
5.1297471788194438
 20
-8.7949842664930546
 30
0.0
 10
5.1138997395833332
 20
-5.9896430121527775
 30
0.0
 10
5.1138997395833332
 20
-5.9896430121527775
 30
0.0
 10
5.0456868489583329
 20
6.0471761067708325
 30
0.0
 10
5.0456868489583329
 20
6.0471761067708325
 30
0.0
  0
ENDBLK
  5
10A
100
AcDbEntity
  8
LAYER_1
100
AcDbBlockEnd
  0
BLOCK
  5
17E
100
AcDbEntity
  8
LAYER_1
 62
     7
100
AcDbBlockBegin
  2
AI9-BLK35
 70
     0
 10
0.0
 20
0.0
 30
0.0
  3
AI9-BLK35
  1

  0
POLYLINE
  5
186
100
AcDbEntity
  8
LAYER_1
 62
     7
100
AcDb2dPolyline
 66
     1
 10
0.0
 20
0.0
 30
0.0
 70
     1
  0
VERTEX
  5
187
100
AcDbEntity
  8
LAYER_1
 62
     7
100
AcDbVertex
100
AcDb2dVertex
 10
8.191662
 20
-1.460548
 30
0.0
  0
VERTEX
  5
188
100
AcDbEntity
  8
LAYER_1
 62
     7
100
AcDbVertex
100
AcDb2dVertex
 10
-10.350359
 20
-1.460548
 30
0.0
  0
VERTEX
  5
189
100
AcDbEntity
  8
LAYER_1
 62
     7
100
AcDbVertex
100
AcDb2dVertex
 10
-10.350359
 20
1.460548
 30
0.0
  0
VERTEX
  5
18A
100
AcDbEntity
  8
LAYER_1
 62
     7
100
AcDbVertex
100
AcDb2dVertex
 10
8.191662
 20
1.460548
 30
0.0
  0
SEQEND
  5
18B
100
AcDbEntity
  8
LAYER_1
 62
     7
  0
POLYLINE
  5
180
100
AcDbEntity
  8
LAYER_1
 62
     7
100
AcDb2dPolyline
 66
     1
 10
0.0
 20
0.0
 30
0.0
 70
     1
  0
VERTEX
  5
181
100
AcDbEntity
  8
LAYER_1
 62
     7
100
AcDbVertex
100
AcDb2dVertex
 10
-1.333338
 20
-4.7625
 30
0.0
  0
VERTEX
  5
182
100
AcDbEntity
  8
LAYER_1
 62
     7
100
AcDbVertex
100
AcDb2dVertex
 10
-7.429262
 20
-4.7625
 30
0.0
  0
VERTEX
  5
183
100
AcDbEntity
  8
LAYER_1
 62
     7
100
AcDbVertex
100
AcDb2dVertex
 10
-7.429262
 20
4.7625
 30
0.0
  0
VERTEX
  5
184
100
AcDbEntity
  8
LAYER_1
 62
     7
100
AcDbVertex
100
AcDb2dVertex
 10
-1.333338
 20
4.7625
 30
0.0
  0
SEQEND
  5
185
100
AcDbEntity
  8
LAYER_1
 62
     7
  0
SPLINE
  5
17F
100
AcDbEntity
  8
LAYER_1
 62
     7
100
AcDbSpline
210
0.0
220
0.0
230
1.0
 70
     8
 71
     3
 72
    14
 73
    10
 74
     0
 42
0.00000001
 43
0.00000001
 40
0.0
 40
0.0
 40
0.0
 40
0.0
 40
1.0
 40
1.0
 40
1.0
 40
2.0
 40
2.0
 40
2.0
 40
3.0
 40
3.0
 40
3.0
 40
3.0
 10
8.1916619194878457
 20
3.3655137803819439
 30
0.0
 10
8.1916619194878457
 20
3.3655137803819439
 30
0.0
 10
8.1916619194878457
 20
-3.3655137803819439
 30
0.0
 10
8.1916619194878457
 20
-3.3655137803819439
 30
0.0
 10
9.3840094672309018
 20
-3.3655137803819439
 30
0.0
 10
10.350703260633679
 20
-1.8586290147569442
 30
0.0
 10
10.350703260633679
 20
0.0
 30
0.0
 10
10.350703260633679
 20
1.8586290147569442
 30
0.0
 10
9.3840094672309018
 20
3.3655137803819439
 30
0.0
 10
8.1916619194878457
 20
3.3655137803819439
 30
0.0
  0
ENDBLK
  5
18C
100
AcDbEntity
  8
LAYER_1
100
AcDbBlockEnd
  0
BLOCK
  5
18F
100
AcDbEntity
  8
LAYER_1
 62
     7
100
AcDbBlockBegin
  2
AI9-BLK36
 70
     0
 10
0.0
 20
0.0
 30
0.0
  3
AI9-BLK36
  1

  0
POLYLINE
  5
197
100
AcDbEntity
  8
LAYER_1
 62
     7
100
AcDb2dPolyline
 66
     1
 10
0.0
 20
0.0
 30
0.0
 70
     1
  0
VERTEX
  5
198
100
AcDbEntity
  8
LAYER_1
 62
     7
100
AcDbVertex
100
AcDb2dVertex
 10
8.191662
 20
-1.460548
 30
0.0
  0
VERTEX
  5
199
100
AcDbEntity
  8
LAYER_1
 62
     7
100
AcDbVertex
100
AcDb2dVertex
 10
-10.350359
 20
-1.460548
 30
0.0
  0
VERTEX
  5
19A
100
AcDbEntity
  8
LAYER_1
 62
     7
100
AcDbVertex
100
AcDb2dVertex
 10
-10.350359
 20
1.460548
 30
0.0
  0
VERTEX
  5
19B
100
AcDbEntity
  8
LAYER_1
 62
     7
100
AcDbVertex
100
AcDb2dVertex
 10
8.191662
 20
1.460548
 30
0.0
  0
SEQEND
  5
19C
100
AcDbEntity
  8
LAYER_1
 62
     7
  0
POLYLINE
  5
191
100
AcDbEntity
  8
LAYER_1
 62
     7
100
AcDb2dPolyline
 66
     1
 10
0.0
 20
0.0
 30
0.0
 70
     1
  0
VERTEX
  5
192
100
AcDbEntity
  8
LAYER_1
 62
     7
100
AcDbVertex
100
AcDb2dVertex
 10
-1.333338
 20
-4.7625
 30
0.0
  0
VERTEX
  5
193
100
AcDbEntity
  8
LAYER_1
 62
     7
100
AcDbVertex
100
AcDb2dVertex
 10
-7.429262
 20
-4.7625
 30
0.0
  0
VERTEX
  5
194
100
AcDbEntity
  8
LAYER_1
 62
     7
100
AcDbVertex
100
AcDb2dVertex
 10
-7.429262
 20
4.7625
 30
0.0
  0
VERTEX
  5
195
100
AcDbEntity
  8
LAYER_1
 62
     7
100
AcDbVertex
100
AcDb2dVertex
 10
-1.333338
 20
4.7625
 30
0.0
  0
SEQEND
  5
196
100
AcDbEntity
  8
LAYER_1
 62
     7
  0
SPLINE
  5
190
100
AcDbEntity
  8
LAYER_1
 62
     7
100
AcDbSpline
210
0.0
220
0.0
230
1.0
 70
     8
 71
     3
 72
    14
 73
    10
 74
     0
 42
0.00000001
 43
0.00000001
 40
0.0
 40
0.0
 40
0.0
 40
0.0
 40
1.0
 40
1.0
 40
1.0
 40
2.0
 40
2.0
 40
2.0
 40
3.0
 40
3.0
 40
3.0
 40
3.0
 10
8.1916619194878457
 20
3.3655137803819439
 30
0.0
 10
8.1916619194878457
 20
3.3655137803819439
 30
0.0
 10
8.1916619194878457
 20
-3.3655137803819439
 30
0.0
 10
8.1916619194878457
 20
-3.3655137803819439
 30
0.0
 10
9.3840094672309018
 20
-3.3655137803819439
 30
0.0
 10
10.350703260633679
 20
-1.8586290147569442
 30
0.0
 10
10.350703260633679
 20
0.0
 30
0.0
 10
10.350703260633679
 20
1.8586290147569442
 30
0.0
 10
9.3840094672309018
 20
3.3655137803819439
 30
0.0
 10
8.1916619194878457
 20
3.3655137803819439
 30
0.0
  0
ENDBLK
  5
19D
100
AcDbEntity
  8
LAYER_1
100
AcDbBlockEnd
  0
BLOCK
  5
1DB
100
AcDbEntity
  8
LAYER_1
 62
     7
100
AcDbBlockBegin
  2
AI9-BLK37
 70
     0
 10
0.0
 20
0.0
 30
0.0
  3
AI9-BLK37
  1

  0
POLYLINE
  5
1E3
100
AcDbEntity
  8
LAYER_1
 62
     7
100
AcDb2dPolyline
 66
     1
 10
0.0
 20
0.0
 30
0.0
 70
     1
  0
VERTEX
  5
1E4
100
AcDbEntity
  8
LAYER_1
 62
     7
100
AcDbVertex
100
AcDb2dVertex
 10
7.901585
 20
3.183354
 30
0.0
  0
VERTEX
  5
1E5
100
AcDbEntity
  8
LAYER_1
 62
     7
100
AcDbVertex
100
AcDb2dVertex
 10
-8.15635
 20
-6.08757
 30
0.0
  0
VERTEX
  5
1E6
100
AcDbEntity
  8
LAYER_1
 62
     7
100
AcDbVertex
100
AcDb2dVertex
 10
-9.616898
 20
-3.557836
 30
0.0
  0
VERTEX
  5
1E7
100
AcDbEntity
  8
LAYER_1
 62
     7
100
AcDbVertex
100
AcDb2dVertex
 10
6.441037
 20
5.713088
 30
0.0
  0
SEQEND
  5
1E8
100
AcDbEntity
  8
LAYER_1
 62
     7
  0
POLYLINE
  5
1DD
100
AcDbEntity
  8
LAYER_1
 62
     7
100
AcDb2dPolyline
 66
     1
 10
0.0
 20
0.0
 30
0.0
 70
     1
  0
VERTEX
  5
1DE
100
AcDbEntity
  8
LAYER_1
 62
     7
100
AcDbVertex
100
AcDb2dVertex
 10
1.303538
 20
-4.438747
 30
0.0
  0
VERTEX
  5
1DF
100
AcDbEntity
  8
LAYER_1
 62
     7
100
AcDbVertex
100
AcDb2dVertex
 10
-3.975554
 20
-7.486623
 30
0.0
  0
VERTEX
  5
1E0
100
AcDbEntity
  8
LAYER_1
 62
     7
100
AcDbVertex
100
AcDb2dVertex
 10
-8.738054
 20
0.762314
 30
0.0
  0
VERTEX
  5
1E1
100
AcDbEntity
  8
LAYER_1
 62
     7
100
AcDbVertex
100
AcDb2dVertex
 10
-3.458962
 20
3.810189
 30
0.0
  0
SEQEND
  5
1E2
100
AcDbEntity
  8
LAYER_1
 62
     7
  0
SPLINE
  5
1DC
100
AcDbEntity
  8
LAYER_1
 62
     7
100
AcDbSpline
210
0.0
220
0.0
230
1.0
 70
     8
 71
     3
 72
    14
 73
    10
 74
     0
 42
0.00000001
 43
0.00000001
 40
0.0
 40
0.0
 40
0.0
 40
0.0
 40
1.0
 40
1.0
 40
1.0
 40
2.0
 40
2.0
 40
2.0
 40
3.0
 40
3.0
 40
3.0
 40
3.0
 10
5.4884677463107634
 20
7.3629442003038186
 30
0.0
 10
5.4884677463107634
 20
7.3629442003038186
 30
0.0
 10
8.8539815266927082
 20
1.5336703830295138
 30
0.0
 10
8.8539815266927082
 20
1.5336703830295138
 30
0.0
 10
9.8866488986545136
 20
2.1298441569010413
 30
0.0
 10
9.9703647189670122
 20
3.9181932237413193
 30
0.0
 10
9.0410502115885407
 20
5.5277418348524296
 30
0.0
 10
8.1117357042100693
 20
7.1374627007378466
 30
0.0
 10
6.5211351182725688
 20
7.9591179741753466
 30
0.0
 10
5.4884677463107634
 20
7.3629442003038186
 30
0.0
  0
ENDBLK
  5
1E9
100
AcDbEntity
  8
LAYER_1
100
AcDbBlockEnd
  0
BLOCK
  5
1EC
100
AcDbEntity
  8
LAYER_1
 62
     7
100
AcDbBlockBegin
  2
AI9-BLK38
 70
     0
 10
0.0
 20
0.0
 30
0.0
  3
AI9-BLK38
  1

  0
POLYLINE
  5
1F4
100
AcDbEntity
  8
LAYER_1
 62
     7
100
AcDb2dPolyline
 66
     1
 10
0.0
 20
0.0
 30
0.0
 70
     1
  0
VERTEX
  5
1F5
100
AcDbEntity
  8
LAYER_1
 62
     7
100
AcDbVertex
100
AcDb2dVertex
 10
7.901585
 20
3.183354
 30
0.0
  0
VERTEX
  5
1F6
100
AcDbEntity
  8
LAYER_1
 62
     7
100
AcDbVertex
100
AcDb2dVertex
 10
-8.15635
 20
-6.08757
 30
0.0
  0
VERTEX
  5
1F7
100
AcDbEntity
  8
LAYER_1
 62
     7
100
AcDbVertex
100
AcDb2dVertex
 10
-9.616898
 20
-3.557836
 30
0.0
  0
VERTEX
  5
1F8
100
AcDbEntity
  8
LAYER_1
 62
     7
100
AcDbVertex
100
AcDb2dVertex
 10
6.441037
 20
5.713088
 30
0.0
  0
SEQEND
  5
1F9
100
AcDbEntity
  8
LAYER_1
 62
     7
  0
POLYLINE
  5
1EE
100
AcDbEntity
  8
LAYER_1
 62
     7
100
AcDb2dPolyline
 66
     1
 10
0.0
 20
0.0
 30
0.0
 70
     1
  0
VERTEX
  5
1EF
100
AcDbEntity
  8
LAYER_1
 62
     7
100
AcDbVertex
100
AcDb2dVertex
 10
1.30371
 20
-4.438747
 30
0.0
  0
VERTEX
  5
1F0
100
AcDbEntity
  8
LAYER_1
 62
     7
100
AcDbVertex
100
AcDb2dVertex
 10
-3.975554
 20
-7.486623
 30
0.0
  0
VERTEX
  5
1F1
100
AcDbEntity
  8
LAYER_1
 62
     7
100
AcDbVertex
100
AcDb2dVertex
 10
-8.738054
 20
0.762314
 30
0.0
  0
VERTEX
  5
1F2
100
AcDbEntity
  8
LAYER_1
 62
     7
100
AcDbVertex
100
AcDb2dVertex
 10
-3.45879
 20
3.810189
 30
0.0
  0
SEQEND
  5
1F3
100
AcDbEntity
  8
LAYER_1
 62
     7
  0
SPLINE
  5
1ED
100
AcDbEntity
  8
LAYER_1
 62
     7
100
AcDbSpline
210
0.0
220
0.0
230
1.0
 70
     8
 71
     3
 72
    14
 73
    10
 74
     0
 42
0.00000001
 43
0.00000001
 40
0.0
 40
0.0
 40
0.0
 40
0.0
 40
1.0
 40
1.0
 40
1.0
 40
2.0
 40
2.0
 40
2.0
 40
3.0
 40
3.0
 40
3.0
 40
3.0
 10
5.4886400010850691
 20
7.3629442003038186
 30
0.0
 10
5.4886400010850691
 20
7.3629442003038186
 30
0.0
 10
8.8541537814670139
 20
1.5336703830295138
 30
0.0
 10
8.8541537814670139
 20
1.5336703830295138
 30
0.0
 10
9.8866488986545136
 20
2.1298441569010413
 30
0.0
 10
9.9703647189670122
 20
3.9181932237413193
 30
0.0
 10
9.0410502115885407
 20
5.5277418348524296
 30
0.0
 10
8.1117357042100693
 20
7.1374627007378466
 30
0.0
 10
6.5211351182725688
 20
7.9591179741753466
 30
0.0
 10
5.4886400010850691
 20
7.3629442003038186
 30
0.0
  0
ENDBLK
  5
1FA
100
AcDbEntity
  8
LAYER_1
100
AcDbBlockEnd
  0
BLOCK
  5
272
100
AcDbEntity
  8
LAYER_1
 62
     7
100
AcDbBlockBegin
  2
AI9-BLK39
 70
     0
 10
0.0
 20
0.0
 30
0.0
  3
AI9-BLK39
  1

  0
POLYLINE
  5
27A
100
AcDbEntity
  8
LAYER_1
 62
     7
100
AcDb2dPolyline
 66
     1
 10
0.0
 20
0.0
 30
0.0
 70
     1
  0
VERTEX
  5
27B
100
AcDbEntity
  8
LAYER_1
 62
     7
100
AcDbVertex
100
AcDb2dVertex
 10
8.03224
 20
-2.98173
 30
0.0
  0
VERTEX
  5
27C
100
AcDbEntity
  8
LAYER_1
 62
     7
100
AcDbVertex
100
AcDb2dVertex
 10
-10.371804
 20
-0.722092
 30
0.0
  0
VERTEX
  5
27D
100
AcDbEntity
  8
LAYER_1
 62
     7
100
AcDbVertex
100
AcDb2dVertex
 10
-10.015582
 20
2.176956
 30
0.0
  0
VERTEX
  5
27E
100
AcDbEntity
  8
LAYER_1
 62
     7
100
AcDbVertex
100
AcDb2dVertex
 10
8.388118
 20
-0.082682
 30
0.0
  0
SEQEND
  5
27F
100
AcDbEntity
  8
LAYER_1
 62
     7
  0
POLYLINE
  5
274
100
AcDbEntity
  8
LAYER_1
 62
     7
100
AcDb2dPolyline
 66
     1
 10
0.0
 20
0.0
 30
0.0
 70
     1
  0
VERTEX
  5
275
100
AcDbEntity
  8
LAYER_1
 62
     7
100
AcDbVertex
100
AcDb2dVertex
 10
-1.824523
 20
-5.098397
 30
0.0
  0
VERTEX
  5
276
100
AcDbEntity
  8
LAYER_1
 62
     7
100
AcDbVertex
100
AcDb2dVertex
 10
-7.874799
 20
-4.355634
 30
0.0
  0
VERTEX
  5
277
100
AcDbEntity
  8
LAYER_1
 62
     7
100
AcDbVertex
100
AcDb2dVertex
 10
-6.714147
 20
5.098397
 30
0.0
  0
VERTEX
  5
278
100
AcDbEntity
  8
LAYER_1
 62
     7
100
AcDbVertex
100
AcDb2dVertex
 10
-0.663525
 20
4.355634
 30
0.0
  0
SEQEND
  5
279
100
AcDbEntity
  8
LAYER_1
 62
     7
  0
SPLINE
  5
273
100
AcDbEntity
  8
LAYER_1
 62
     7
100
AcDbSpline
210
0.0
220
0.0
230
1.0
 70
     8
 71
     3
 72
    14
 73
    10
 74
     0
 42
0.00000001
 43
0.00000001
 40
0.0
 40
0.0
 40
0.0
 40
0.0
 40
1.0
 40
1.0
 40
1.0
 40
2.0
 40
2.0
 40
2.0
 40
3.0
 40
3.0
 40
3.0
 40
3.0
 10
8.6203179253472211
 20
1.8079861111111108
 30
0.0
 10
8.6203179253472211
 20
1.8079861111111108
 30
0.0
 10
7.8000406901041659
 20
-4.8727430555555555
 30
0.0
 10
7.8000406901041659
 20
-4.8727430555555555
 30
0.0
 10
8.9834309895833329
 20
-5.0181260850694436
 30
0.0
 10
10.126858181423611
 20
-3.6400878906249998
 30
0.0
 10
10.35320095486111
 20
-1.795583767361111
 30
0.0
 10
10.579888237847221
 20
0.0492648654513889
 30
0.0
 10
9.8037082248263872
 20
1.6629475911458331
 30
0.0
 10
8.6203179253472211
 20
1.8079861111111108
 30
0.0
  0
ENDBLK
  5
280
100
AcDbEntity
  8
LAYER_1
100
AcDbBlockEnd
  0
BLOCK
  5
283
100
AcDbEntity
  8
LAYER_1
 62
     7
100
AcDbBlockBegin
  2
AI9-BLK40
 70
     0
 10
0.0
 20
0.0
 30
0.0
  3
AI9-BLK40
  1

  0
POLYLINE
  5
28B
100
AcDbEntity
  8
LAYER_1
 62
     7
100
AcDb2dPolyline
 66
     1
 10
0.0
 20
0.0
 30
0.0
 70
     1
  0
VERTEX
  5
28C
100
AcDbEntity
  8
LAYER_1
 62
     7
100
AcDbVertex
100
AcDb2dVertex
 10
8.03224
 20
-2.982247
 30
0.0
  0
VERTEX
  5
28D
100
AcDbEntity
  8
LAYER_1
 62
     7
100
AcDbVertex
100
AcDb2dVertex
 10
-10.371804
 20
-0.722264
 30
0.0
  0
VERTEX
  5
28E
100
AcDbEntity
  8
LAYER_1
 62
     7
100
AcDbVertex
100
AcDb2dVertex
 10
-10.015926
 20
2.177128
 30
0.0
  0
VERTEX
  5
28F
100
AcDbEntity
  8
LAYER_1
 62
     7
100
AcDbVertex
100
AcDb2dVertex
 10
8.388118
 20
-0.08251
 30
0.0
  0
SEQEND
  5
290
100
AcDbEntity
  8
LAYER_1
 62
     7
  0
POLYLINE
  5
285
100
AcDbEntity
  8
LAYER_1
 62
     7
100
AcDb2dPolyline
 66
     1
 10
0.0
 20
0.0
 30
0.0
 70
     1
  0
VERTEX
  5
286
100
AcDbEntity
  8
LAYER_1
 62
     7
100
AcDbVertex
100
AcDb2dVertex
 10
-1.824523
 20
-5.098569
 30
0.0
  0
VERTEX
  5
287
100
AcDbEntity
  8
LAYER_1
 62
     7
100
AcDbVertex
100
AcDb2dVertex
 10
-7.874799
 20
-4.355462
 30
0.0
  0
VERTEX
  5
288
100
AcDbEntity
  8
LAYER_1
 62
     7
100
AcDbVertex
100
AcDb2dVertex
 10
-6.714147
 20
5.098569
 30
0.0
  0
VERTEX
  5
289
100
AcDbEntity
  8
LAYER_1
 62
     7
100
AcDbVertex
100
AcDb2dVertex
 10
-0.66387
 20
4.355462
 30
0.0
  0
SEQEND
  5
28A
100
AcDbEntity
  8
LAYER_1
 62
     7
  0
SPLINE
  5
284
100
AcDbEntity
  8
LAYER_1
 62
     7
100
AcDbSpline
210
0.0
220
0.0
230
1.0
 70
     8
 71
     3
 72
    14
 73
    10
 74
     0
 42
0.00000001
 43
0.00000001
 40
0.0
 40
0.0
 40
0.0
 40
0.0
 40
1.0
 40
1.0
 40
1.0
 40
2.0
 40
2.0
 40
2.0
 40
3.0
 40
3.0
 40
3.0
 40
3.0
 10
8.6203179253472211
 20
1.8081583658854166
 30
0.0
 10
8.6203179253472211
 20
1.8081583658854166
 30
0.0
 10
7.8000406901041659
 20
-4.8725708007812498
 30
0.0
 10
7.8000406901041659
 20
-4.8725708007812498
 30
0.0
 10
8.9834309895833329
 20
-5.0179538302951388
 30
0.0
 10
10.126513671874999
 20
-3.6402601453993051
 30
0.0
 10
10.35320095486111
 20
-1.7954115125868053
 30
0.0
 10
10.57954372829861
 20
0.0494371202256944
 30
0.0
 10
9.8037082248263872
 20
1.6627753363715276
 30
0.0
 10
8.6203179253472211
 20
1.8081583658854166
 30
0.0
  0
ENDBLK
  5
291
100
AcDbEntity
  8
LAYER_1
100
AcDbBlockEnd
  0
BLOCK
  5
294
100
AcDbEntity
  8
LAYER_1
 62
     7
100
AcDbBlockBegin
  2
AI9-BLK41
 70
     0
 10
0.0
 20
0.0
 30
0.0
  3
AI9-BLK41
  1

  0
POLYLINE
  5
29C
100
AcDbEntity
  8
LAYER_1
 62
     7
100
AcDb2dPolyline
 66
     1
 10
0.0
 20
0.0
 30
0.0
 70
     1
  0
VERTEX
  5
29D
100
AcDbEntity
  8
LAYER_1
 62
     7
100
AcDbVertex
100
AcDb2dVertex
 10
8.03224
 20
-2.982075
 30
0.0
  0
VERTEX
  5
29E
100
AcDbEntity
  8
LAYER_1
 62
     7
100
AcDbVertex
100
AcDb2dVertex
 10
-10.371804
 20
-0.722437
 30
0.0
  0
VERTEX
  5
29F
100
AcDbEntity
  8
LAYER_1
 62
     7
100
AcDbVertex
100
AcDb2dVertex
 10
-10.015926
 20
2.176956
 30
0.0
  0
VERTEX
  5
2A0
100
AcDbEntity
  8
LAYER_1
 62
     7
100
AcDbVertex
100
AcDb2dVertex
 10
8.388118
 20
-0.082682
 30
0.0
  0
SEQEND
  5
2A1
100
AcDbEntity
  8
LAYER_1
 62
     7
  0
POLYLINE
  5
296
100
AcDbEntity
  8
LAYER_1
 62
     7
100
AcDb2dPolyline
 66
     1
 10
0.0
 20
0.0
 30
0.0
 70
     1
  0
VERTEX
  5
297
100
AcDbEntity
  8
LAYER_1
 62
     7
100
AcDbVertex
100
AcDb2dVertex
 10
-1.824523
 20
-5.098397
 30
0.0
  0
VERTEX
  5
298
100
AcDbEntity
  8
LAYER_1
 62
     7
100
AcDbVertex
100
AcDb2dVertex
 10
-7.874799
 20
-4.355634
 30
0.0
  0
VERTEX
  5
299
100
AcDbEntity
  8
LAYER_1
 62
     7
100
AcDbVertex
100
AcDb2dVertex
 10
-6.714147
 20
5.098397
 30
0.0
  0
VERTEX
  5
29A
100
AcDbEntity
  8
LAYER_1
 62
     7
100
AcDbVertex
100
AcDb2dVertex
 10
-0.66387
 20
4.355634
 30
0.0
  0
SEQEND
  5
29B
100
AcDbEntity
  8
LAYER_1
 62
     7
  0
SPLINE
  5
295
100
AcDbEntity
  8
LAYER_1
 62
     7
100
AcDbSpline
210
0.0
220
0.0
230
1.0
 70
     8
 71
     3
 72
    14
 73
    10
 74
     0
 42
0.00000001
 43
0.00000001
 40
0.0
 40
0.0
 40
0.0
 40
0.0
 40
1.0
 40
1.0
 40
1.0
 40
2.0
 40
2.0
 40
2.0
 40
3.0
 40
3.0
 40
3.0
 40
3.0
 10
8.6203179253472211
 20
1.8076416015624999
 30
0.0
 10
8.6203179253472211
 20
1.8076416015624999
 30
0.0
 10
7.8000406901041659
 20
-4.8730875651041661
 30
0.0
 10
7.8000406901041659
 20
-4.8730875651041661
 30
0.0
 10
8.9834309895833329
 20
-5.018470594618055
 30
0.0
 10
10.126513671874999
 20
-3.6404324001736108
 30
0.0
 10
10.35320095486111
 20
-1.7952392578124998
 30
0.0
 10
10.57954372829861
 20
0.0489203559027778
 30
0.0
 10
9.8037082248263872
 20
1.6626030815972221
 30
0.0
 10
8.6203179253472211
 20
1.8076416015624999
 30
0.0
  0
ENDBLK
  5
2A2
100
AcDbEntity
  8
LAYER_1
100
AcDbBlockEnd
  0
BLOCK
  5
2C3
100
AcDbEntity
  8
LAYER_1
 62
     7
100
AcDbBlockBegin
  2
AI9-BLK42
 70
     0
 10
0.0
 20
0.0
 30
0.0
  3
AI9-BLK42
  1

  0
POLYLINE
  5
2CB
100
AcDbEntity
  8
LAYER_1
 62
     7
100
AcDb2dPolyline
 66
     1
 10
0.0
 20
0.0
 30
0.0
 70
     1
  0
VERTEX
  5
2CC
100
AcDbEntity
  8
LAYER_1
 62
     7
100
AcDbVertex
100
AcDb2dVertex
 10
8.125085
 20
-2.334052
 30
0.0
  0
VERTEX
  5
2CD
100
AcDbEntity
  8
LAYER_1
 62
     7
100
AcDbVertex
100
AcDb2dVertex
 10
-10.371977
 20
-1.040419
 30
0.0
  0
VERTEX
  5
2CE
100
AcDbEntity
  8
LAYER_1
 62
     7
100
AcDbVertex
100
AcDb2dVertex
 10
-10.168027
 20
1.873098
 30
0.0
  0
VERTEX
  5
2CF
100
AcDbEntity
  8
LAYER_1
 62
     7
100
AcDbVertex
100
AcDb2dVertex
 10
8.328691
 20
0.579465
 30
0.0
  0
SEQEND
  5
2D0
100
AcDbEntity
  8
LAYER_1
 62
     7
  0
POLYLINE
  5
2C5
100
AcDbEntity
  8
LAYER_1
 62
     7
100
AcDb2dPolyline
 66
     1
 10
0.0
 20
0.0
 30
0.0
 70
     1
  0
VERTEX
  5
2C6
100
AcDbEntity
  8
LAYER_1
 62
     7
100
AcDbVertex
100
AcDb2dVertex
 10
-1.607654
 20
-4.963694
 30
0.0
  0
VERTEX
  5
2C7
100
AcDbEntity
  8
LAYER_1
 62
     7
100
AcDbVertex
100
AcDb2dVertex
 10
-7.688247
 20
-4.538224
 30
0.0
  0
VERTEX
  5
2C8
100
AcDbEntity
  8
LAYER_1
 62
     7
100
AcDbVertex
100
AcDb2dVertex
 10
-7.023688
 20
4.963694
 30
0.0
  0
VERTEX
  5
2C9
100
AcDbEntity
  8
LAYER_1
 62
     7
100
AcDbVertex
100
AcDb2dVertex
 10
-0.94275
 20
4.538224
 30
0.0
  0
SEQEND
  5
2CA
100
AcDbEntity
  8
LAYER_1
 62
     7
  0
SPLINE
  5
2C4
100
AcDbEntity
  8
LAYER_1
 62
     7
100
AcDbSpline
210
0.0
220
0.0
230
1.0
 70
     8
 71
     3
 72
    14
 73
    10
 74
     0
 42
0.00000001
 43
0.00000001
 40
0.0
 40
0.0
 40
0.0
 40
0.0
 40
1.0
 40
1.0
 40
1.0
 40
2.0
 40
2.0
 40
2.0
 40
3.0
 40
3.0
 40
3.0
 40
3.0
 10
8.4616712782118046
 20
2.4801242404513886
 30
0.0
 10
8.4616712782118046
 20
2.4801242404513886
 30
0.0
 10
7.9921047634548605
 20
-4.2343668619791659
 30
0.0
 10
7.9921047634548605
 20
-4.2343668619791659
 30
0.0
 10
9.1816962348090261
 20
-4.3173936631944443
 30
0.0
 10
10.251053873697916
 20
-2.8818223741319442
 30
0.0
 10
10.380589463975694
 20
-1.0276719835069443
 30
0.0
 10
10.510469563802083
 20
0.8264784071180555
 30
0.0
 10
9.6512627495659711
 20
2.3970974392361111
 30
0.0
 10
8.4616712782118046
 20
2.4801242404513886
 30
0.0
  0
ENDBLK
  5
2D1
100
AcDbEntity
  8
LAYER_1
100
AcDbBlockEnd
  0
BLOCK
  5
2D4
100
AcDbEntity
  8
LAYER_1
 62
     7
100
AcDbBlockBegin
  2
AI9-BLK43
 70
     0
 10
0.0
 20
0.0
 30
0.0
  3
AI9-BLK43
  1

  0
POLYLINE
  5
2DC
100
AcDbEntity
  8
LAYER_1
 62
     7
100
AcDb2dPolyline
 66
     1
 10
0.0
 20
0.0
 30
0.0
 70
     1
  0
VERTEX
  5
2DD
100
AcDbEntity
  8
LAYER_1
 62
     7
100
AcDbVertex
100
AcDb2dVertex
 10
8.124913
 20
-2.33388
 30
0.0
  0
VERTEX
  5
2DE
100
AcDbEntity
  8
LAYER_1
 62
     7
100
AcDbVertex
100
AcDb2dVertex
 10
-10.372149
 20
-1.040591
 30
0.0
  0
VERTEX
  5
2DF
100
AcDbEntity
  8
LAYER_1
 62
     7
100
AcDbVertex
100
AcDb2dVertex
 10
-10.168199
 20
1.873271
 30
0.0
  0
VERTEX
  5
2E0
100
AcDbEntity
  8
LAYER_1
 62
     7
100
AcDbVertex
100
AcDb2dVertex
 10
8.328863
 20
0.579637
 30
0.0
  0
SEQEND
  5
2E1
100
AcDbEntity
  8
LAYER_1
 62
     7
  0
POLYLINE
  5
2D6
100
AcDbEntity
  8
LAYER_1
 62
     7
100
AcDb2dPolyline
 66
     1
 10
0.0
 20
0.0
 30
0.0
 70
     1
  0
VERTEX
  5
2D7
100
AcDbEntity
  8
LAYER_1
 62
     7
100
AcDbVertex
100
AcDb2dVertex
 10
-1.607482
 20
-4.963521
 30
0.0
  0
VERTEX
  5
2D8
100
AcDbEntity
  8
LAYER_1
 62
     7
100
AcDbVertex
100
AcDb2dVertex
 10
-7.68842
 20
-4.538397
 30
0.0
  0
VERTEX
  5
2D9
100
AcDbEntity
  8
LAYER_1
 62
     7
100
AcDbVertex
100
AcDb2dVertex
 10
-7.023516
 20
4.963521
 30
0.0
  0
VERTEX
  5
2DA
100
AcDbEntity
  8
LAYER_1
 62
     7
100
AcDbVertex
100
AcDb2dVertex
 10
-0.942923
 20
4.538397
 30
0.0
  0
SEQEND
  5
2DB
100
AcDbEntity
  8
LAYER_1
 62
     7
  0
SPLINE
  5
2D5
100
AcDbEntity
  8
LAYER_1
 62
     7
100
AcDbSpline
210
0.0
220
0.0
230
1.0
 70
     8
 71
     3
 72
    14
 73
    10
 74
     0
 42
0.00000001
 43
0.00000001
 40
0.0
 40
0.0
 40
0.0
 40
0.0
 40
1.0
 40
1.0
 40
1.0
 40
2.0
 40
2.0
 40
2.0
 40
3.0
 40
3.0
 40
3.0
 40
3.0
 10
8.4614990234374989
 20
2.4802964952256943
 30
0.0
 10
8.4614990234374989
 20
2.4802964952256943
 30
0.0
 10
7.9922770182291663
 20
-4.2345391167534716
 30
0.0
 10
7.9922770182291663
 20
-4.2345391167534716
 30
0.0
 10
9.1818684895833318
 20
-4.31756591796875
 30
0.0
 10
10.251226128472222
 20
-2.8816501193576385
 30
0.0
 10
10.38076171875
 20
-1.0274997287326388
 30
0.0
 10
10.510641818576389
 20
0.826650661892361
 30
0.0
 10
9.6514350043402768
 20
2.3972696940104163
 30
0.0
 10
8.4614990234374989
 20
2.4802964952256943
 30
0.0
  0
ENDBLK
  5
2E2
100
AcDbEntity
  8
LAYER_1
100
AcDbBlockEnd
  0
BLOCK
  5
2E5
100
AcDbEntity
  8
LAYER_1
 62
     7
100
AcDbBlockBegin
  2
AI9-BLK44
 70
     0
 10
0.0
 20
0.0
 30
0.0
  3
AI9-BLK44
  1

  0
POLYLINE
  5
2ED
100
AcDbEntity
  8
LAYER_1
 62
     7
100
AcDb2dPolyline
 66
     1
 10
0.0
 20
0.0
 30
0.0
 70
     1
  0
VERTEX
  5
2EE
100
AcDbEntity
  8
LAYER_1
 62
     7
100
AcDbVertex
100
AcDb2dVertex
 10
8.124741
 20
-2.33388
 30
0.0
  0
VERTEX
  5
2EF
100
AcDbEntity
  8
LAYER_1
 62
     7
100
AcDbVertex
100
AcDb2dVertex
 10
-10.372321
 20
-1.040591
 30
0.0
  0
VERTEX
  5
2F0
100
AcDbEntity
  8
LAYER_1
 62
     7
100
AcDbVertex
100
AcDb2dVertex
 10
-10.168716
 20
1.873615
 30
0.0
  0
VERTEX
  5
2F1
100
AcDbEntity
  8
LAYER_1
 62
     7
100
AcDbVertex
100
AcDb2dVertex
 10
8.328691
 20
0.580326
 30
0.0
  0
SEQEND
  5
2F2
100
AcDbEntity
  8
LAYER_1
 62
     7
  0
POLYLINE
  5
2E7
100
AcDbEntity
  8
LAYER_1
 62
     7
100
AcDb2dPolyline
 66
     1
 10
0.0
 20
0.0
 30
0.0
 70
     1
  0
VERTEX
  5
2E8
100
AcDbEntity
  8
LAYER_1
 62
     7
100
AcDbVertex
100
AcDb2dVertex
 10
-1.607654
 20
-4.963521
 30
0.0
  0
VERTEX
  5
2E9
100
AcDbEntity
  8
LAYER_1
 62
     7
100
AcDbVertex
100
AcDb2dVertex
 10
-7.688936
 20
-4.538397
 30
0.0
  0
VERTEX
  5
2EA
100
AcDbEntity
  8
LAYER_1
 62
     7
100
AcDbVertex
100
AcDb2dVertex
 10
-7.024033
 20
4.963521
 30
0.0
  0
VERTEX
  5
2EB
100
AcDbEntity
  8
LAYER_1
 62
     7
100
AcDbVertex
100
AcDb2dVertex
 10
-0.943439
 20
4.538397
 30
0.0
  0
SEQEND
  5
2EC
100
AcDbEntity
  8
LAYER_1
 62
     7
  0
SPLINE
  5
2E6
100
AcDbEntity
  8
LAYER_1
 62
     7
100
AcDbSpline
210
0.0
220
0.0
230
1.0
 70
     8
 71
     3
 72
    14
 73
    10
 74
     0
 42
0.00000001
 43
0.00000001
 40
0.0
 40
0.0
 40
0.0
 40
0.0
 40
1.0
 40
1.0
 40
1.0
 40
2.0
 40
2.0
 40
2.0
 40
3.0
 40
3.0
 40
3.0
 40
3.0
 10
8.4613267686631932
 20
2.4802964952256943
 30
0.0
 10
8.4613267686631932
 20
2.4802964952256943
 30
0.0
 10
7.9921047634548605
 20
-4.2341946072048611
 30
0.0
 10
7.9921047634548605
 20
-4.2341946072048611
 30
0.0
 10
9.1813517252604164
 20
-4.3172214084201386
 30
0.0
 10
10.250709364149305
 20
-2.8813056098090275
 30
0.0
 10
10.380244954427083
 20
-1.0278442382812498
 30
0.0
 10
10.510125054253471
 20
0.826650661892361
 30
0.0
 10
9.6509182400173597
 20
2.3976142035590278
 30
0.0
 10
8.4613267686631932
 20
2.4802964952256943
 30
0.0
  0
ENDBLK
  5
2F3
100
AcDbEntity
  8
LAYER_1
100
AcDbBlockEnd
  0
BLOCK
  5
314
100
AcDbEntity
  8
LAYER_1
 62
     7
100
AcDbBlockBegin
  2
AI9-BLK45
 70
     0
 10
0.0
 20
0.0
 30
0.0
  3
AI9-BLK45
  1

  0
POLYLINE
  5
31C
100
AcDbEntity
  8
LAYER_1
 62
     7
100
AcDb2dPolyline
 66
     1
 10
0.0
 20
0.0
 30
0.0
 70
     1
  0
VERTEX
  5
31D
100
AcDbEntity
  8
LAYER_1
 62
     7
100
AcDbVertex
100
AcDb2dVertex
 10
8.388118
 20
0.08251
 30
0.0
  0
VERTEX
  5
31E
100
AcDbEntity
  8
LAYER_1
 62
     7
100
AcDbVertex
100
AcDb2dVertex
 10
-10.015582
 20
-2.177128
 30
0.0
  0
VERTEX
  5
31F
100
AcDbEntity
  8
LAYER_1
 62
     7
100
AcDbVertex
100
AcDb2dVertex
 10
-10.371632
 20
0.722264
 30
0.0
  0
VERTEX
  5
320
100
AcDbEntity
  8
LAYER_1
 62
     7
100
AcDbVertex
100
AcDb2dVertex
 10
8.032068
 20
2.982247
 30
0.0
  0
SEQEND
  5
321
100
AcDbEntity
  8
LAYER_1
 62
     7
  0
POLYLINE
  5
316
100
AcDbEntity
  8
LAYER_1
 62
     7
100
AcDb2dPolyline
 66
     1
 10
0.0
 20
0.0
 30
0.0
 70
     1
  0
VERTEX
  5
317
100
AcDbEntity
  8
LAYER_1
 62
     7
100
AcDbVertex
100
AcDb2dVertex
 10
-0.663353
 20
-4.355462
 30
0.0
  0
VERTEX
  5
318
100
AcDbEntity
  8
LAYER_1
 62
     7
100
AcDbVertex
100
AcDb2dVertex
 10
-6.713974
 20
-5.098569
 30
0.0
  0
VERTEX
  5
319
100
AcDbEntity
  8
LAYER_1
 62
     7
100
AcDbVertex
100
AcDb2dVertex
 10
-7.874799
 20
4.355462
 30
0.0
  0
VERTEX
  5
31A
100
AcDbEntity
  8
LAYER_1
 62
     7
100
AcDbVertex
100
AcDb2dVertex
 10
-1.824178
 20
5.098569
 30
0.0
  0
SEQEND
  5
31B
100
AcDbEntity
  8
LAYER_1
 62
     7
  0
SPLINE
  5
315
100
AcDbEntity
  8
LAYER_1
 62
     7
100
AcDbSpline
210
0.0
220
0.0
230
1.0
 70
     8
 71
     3
 72
    14
 73
    10
 74
     0
 42
0.00000001
 43
0.00000001
 40
0.0
 40
0.0
 40
0.0
 40
0.0
 40
1.0
 40
1.0
 40
1.0
 40
2.0
 40
2.0
 40
2.0
 40
3.0
 40
3.0
 40
3.0
 40
3.0
 10
7.8000406901041659
 20
4.8725708007812498
 30
0.0
 10
7.8000406901041659
 20
4.8725708007812498
 30
0.0
 10
8.6203179253472211
 20
-1.8081583658854166
 30
0.0
 10
8.6203179253472211
 20
-1.8081583658854166
 30
0.0
 10
9.8037082248263872
 20
-1.6627753363715276
 30
0.0
 10
10.57954372829861
 20
-0.0494371202256944
 30
0.0
 10
10.35320095486111
 20
1.7954115125868053
 30
0.0
 10
10.126685926649305
 20
3.6402601453993051
 30
0.0
 10
8.9834309895833329
 20
5.0179538302951388
 30
0.0
 10
7.8000406901041659
 20
4.8725708007812498
 30
0.0
  0
ENDBLK
  5
322
100
AcDbEntity
  8
LAYER_1
100
AcDbBlockEnd
  0
BLOCK
  5
325
100
AcDbEntity
  8
LAYER_1
 62
     7
100
AcDbBlockBegin
  2
AI9-BLK46
 70
     0
 10
0.0
 20
0.0
 30
0.0
  3
AI9-BLK46
  1

  0
POLYLINE
  5
32D
100
AcDbEntity
  8
LAYER_1
 62
     7
100
AcDb2dPolyline
 66
     1
 10
0.0
 20
0.0
 30
0.0
 70
     1
  0
VERTEX
  5
32E
100
AcDbEntity
  8
LAYER_1
 62
     7
100
AcDbVertex
100
AcDb2dVertex
 10
8.388118
 20
0.082682
 30
0.0
  0
VERTEX
  5
32F
100
AcDbEntity
  8
LAYER_1
 62
     7
100
AcDbVertex
100
AcDb2dVertex
 10
-10.015754
 20
-2.176956
 30
0.0
  0
VERTEX
  5
330
100
AcDbEntity
  8
LAYER_1
 62
     7
100
AcDbVertex
100
AcDb2dVertex
 10
-10.371632
 20
0.722092
 30
0.0
  0
VERTEX
  5
331
100
AcDbEntity
  8
LAYER_1
 62
     7
100
AcDbVertex
100
AcDb2dVertex
 10
8.03224
 20
2.98173
 30
0.0
  0
SEQEND
  5
332
100
AcDbEntity
  8
LAYER_1
 62
     7
  0
POLYLINE
  5
327
100
AcDbEntity
  8
LAYER_1
 62
     7
100
AcDb2dPolyline
 66
     1
 10
0.0
 20
0.0
 30
0.0
 70
     1
  0
VERTEX
  5
328
100
AcDbEntity
  8
LAYER_1
 62
     7
100
AcDbVertex
100
AcDb2dVertex
 10
-0.663525
 20
-4.355634
 30
0.0
  0
VERTEX
  5
329
100
AcDbEntity
  8
LAYER_1
 62
     7
100
AcDbVertex
100
AcDb2dVertex
 10
-6.713974
 20
-5.098397
 30
0.0
  0
VERTEX
  5
32A
100
AcDbEntity
  8
LAYER_1
 62
     7
100
AcDbVertex
100
AcDb2dVertex
 10
-7.874799
 20
4.35529
 30
0.0
  0
VERTEX
  5
32B
100
AcDbEntity
  8
LAYER_1
 62
     7
100
AcDbVertex
100
AcDb2dVertex
 10
-1.82435
 20
5.098397
 30
0.0
  0
SEQEND
  5
32C
100
AcDbEntity
  8
LAYER_1
 62
     7
  0
SPLINE
  5
326
100
AcDbEntity
  8
LAYER_1
 62
     7
100
AcDbSpline
210
0.0
220
0.0
230
1.0
 70
     8
 71
     3
 72
    14
 73
    10
 74
     0
 42
0.00000001
 43
0.00000001
 40
0.0
 40
0.0
 40
0.0
 40
0.0
 40
1.0
 40
1.0
 40
1.0
 40
2.0
 40
2.0
 40
2.0
 40
3.0
 40
3.0
 40
3.0
 40
3.0
 10
7.8000406901041659
 20
4.8727430555555555
 30
0.0
 10
7.8000406901041659
 20
4.8727430555555555
 30
0.0
 10
8.6203179253472211
 20
-1.8083306206597221
 30
0.0
 10
8.6203179253472211
 20
-1.8083306206597221
 30
0.0
 10
9.8037082248263872
 20
-1.6629475911458331
 30
0.0
 10
10.57954372829861
 20
-0.049609375
 30
0.0
 10
10.353028700086805
 20
1.7952392578124998
 30
0.0
 10
10.126513671874999
 20
3.6400878906249998
 30
0.0
 10
8.9834309895833329
 20
5.017781575520833
 30
0.0
 10
7.8000406901041659
 20
4.8727430555555555
 30
0.0
  0
ENDBLK
  5
333
100
AcDbEntity
  8
LAYER_1
100
AcDbBlockEnd
  0
BLOCK
  5
336
100
AcDbEntity
  8
LAYER_1
 62
     7
100
AcDbBlockBegin
  2
AI9-BLK47
 70
     0
 10
0.0
 20
0.0
 30
0.0
  3
AI9-BLK47
  1

  0
POLYLINE
  5
33E
100
AcDbEntity
  8
LAYER_1
 62
     7
100
AcDb2dPolyline
 66
     1
 10
0.0
 20
0.0
 30
0.0
 70
     1
  0
VERTEX
  5
33F
100
AcDbEntity
  8
LAYER_1
 62
     7
100
AcDbVertex
100
AcDb2dVertex
 10
8.388118
 20
0.082682
 30
0.0
  0
VERTEX
  5
340
100
AcDbEntity
  8
LAYER_1
 62
     7
100
AcDbVertex
100
AcDb2dVertex
 10
-10.015754
 20
-2.1773
 30
0.0
  0
VERTEX
  5
341
100
AcDbEntity
  8
LAYER_1
 62
     7
100
AcDbVertex
100
AcDb2dVertex
 10
-10.371632
 20
0.722092
 30
0.0
  0
VERTEX
  5
342
100
AcDbEntity
  8
LAYER_1
 62
     7
100
AcDbVertex
100
AcDb2dVertex
 10
8.032068
 20
2.98173
 30
0.0
  0
SEQEND
  5
343
100
AcDbEntity
  8
LAYER_1
 62
     7
  0
POLYLINE
  5
338
100
AcDbEntity
  8
LAYER_1
 62
     7
100
AcDb2dPolyline
 66
     1
 10
0.0
 20
0.0
 30
0.0
 70
     1
  0
VERTEX
  5
339
100
AcDbEntity
  8
LAYER_1
 62
     7
100
AcDbVertex
100
AcDb2dVertex
 10
-0.663525
 20
-4.35529
 30
0.0
  0
VERTEX
  5
33A
100
AcDbEntity
  8
LAYER_1
 62
     7
100
AcDbVertex
100
AcDb2dVertex
 10
-6.713974
 20
-5.098397
 30
0.0
  0
VERTEX
  5
33B
100
AcDbEntity
  8
LAYER_1
 62
     7
100
AcDbVertex
100
AcDb2dVertex
 10
-7.874799
 20
4.355634
 30
0.0
  0
VERTEX
  5
33C
100
AcDbEntity
  8
LAYER_1
 62
     7
100
AcDbVertex
100
AcDb2dVertex
 10
-1.82435
 20
5.098397
 30
0.0
  0
SEQEND
  5
33D
100
AcDbEntity
  8
LAYER_1
 62
     7
  0
SPLINE
  5
337
100
AcDbEntity
  8
LAYER_1
 62
     7
100
AcDbSpline
210
0.0
220
0.0
230
1.0
 70
     8
 71
     3
 72
    14
 73
    10
 74
     0
 42
0.00000001
 43
0.00000001
 40
0.0
 40
0.0
 40
0.0
 40
0.0
 40
1.0
 40
1.0
 40
1.0
 40
2.0
 40
2.0
 40
2.0
 40
3.0
 40
3.0
 40
3.0
 40
3.0
 10
7.8000406901041659
 20
4.8723985460069441
 30
0.0
 10
7.8000406901041659
 20
4.8723985460069441
 30
0.0
 10
8.6203179253472211
 20
-1.8083306206597221
 30
0.0
 10
8.6203179253472211
 20
-1.8083306206597221
 30
0.0
 10
9.8037082248263872
 20
-1.6629475911458331
 30
0.0
 10
10.57954372829861
 20
-0.049609375
 30
0.0
 10
10.353028700086805
 20
1.795583767361111
 30
0.0
 10
10.126513671874999
 20
3.6397433810763884
 30
0.0
 10
8.9834309895833329
 20
5.017781575520833
 30
0.0
 10
7.8000406901041659
 20
4.8723985460069441
 30
0.0
  0
ENDBLK
  5
344
100
AcDbEntity
  8
LAYER_1
100
AcDbBlockEnd
  0
BLOCK
  5
365
100
AcDbEntity
  8
LAYER_1
 62
     7
100
AcDbBlockBegin
  2
AI9-BLK48
 70
     0
 10
0.0
 20
0.0
 30
0.0
  3
AI9-BLK48
  1

  0
POLYLINE
  5
36D
100
AcDbEntity
  8
LAYER_1
 62
     7
100
AcDb2dPolyline
 66
     1
 10
0.0
 20
0.0
 30
0.0
 70
     1
  0
VERTEX
  5
36E
100
AcDbEntity
  8
LAYER_1
 62
     7
100
AcDbVertex
100
AcDb2dVertex
 10
8.191662
 20
-1.460376
 30
0.0
  0
VERTEX
  5
36F
100
AcDbEntity
  8
LAYER_1
 62
     7
100
AcDbVertex
100
AcDb2dVertex
 10
-10.350359
 20
-1.460376
 30
0.0
  0
VERTEX
  5
370
100
AcDbEntity
  8
LAYER_1
 62
     7
100
AcDbVertex
100
AcDb2dVertex
 10
-10.350359
 20
1.460376
 30
0.0
  0
VERTEX
  5
371
100
AcDbEntity
  8
LAYER_1
 62
     7
100
AcDbVertex
100
AcDb2dVertex
 10
8.191662
 20
1.460376
 30
0.0
  0
SEQEND
  5
372
100
AcDbEntity
  8
LAYER_1
 62
     7
  0
POLYLINE
  5
367
100
AcDbEntity
  8
LAYER_1
 62
     7
100
AcDb2dPolyline
 66
     1
 10
0.0
 20
0.0
 30
0.0
 70
     1
  0
VERTEX
  5
368
100
AcDbEntity
  8
LAYER_1
 62
     7
100
AcDbVertex
100
AcDb2dVertex
 10
-1.333338
 20
-4.7625
 30
0.0
  0
VERTEX
  5
369
100
AcDbEntity
  8
LAYER_1
 62
     7
100
AcDbVertex
100
AcDb2dVertex
 10
-7.429262
 20
-4.7625
 30
0.0
  0
VERTEX
  5
36A
100
AcDbEntity
  8
LAYER_1
 62
     7
100
AcDbVertex
100
AcDb2dVertex
 10
-7.429262
 20
4.7625
 30
0.0
  0
VERTEX
  5
36B
100
AcDbEntity
  8
LAYER_1
 62
     7
100
AcDbVertex
100
AcDb2dVertex
 10
-1.333338
 20
4.7625
 30
0.0
  0
SEQEND
  5
36C
100
AcDbEntity
  8
LAYER_1
 62
     7
  0
SPLINE
  5
366
100
AcDbEntity
  8
LAYER_1
 62
     7
100
AcDbSpline
210
0.0
220
0.0
230
1.0
 70
     8
 71
     3
 72
    14
 73
    10
 74
     0
 42
0.00000001
 43
0.00000001
 40
0.0
 40
0.0
 40
0.0
 40
0.0
 40
1.0
 40
1.0
 40
1.0
 40
2.0
 40
2.0
 40
2.0
 40
3.0
 40
3.0
 40
3.0
 40
3.0
 10
8.1916619194878457
 20
3.3655137803819439
 30
0.0
 10
8.1916619194878457
 20
3.3655137803819439
 30
0.0
 10
8.1916619194878457
 20
-3.3655137803819439
 30
0.0
 10
8.1916619194878457
 20
-3.3655137803819439
 30
0.0
 10
9.3840094672309018
 20
-3.3655137803819439
 30
0.0
 10
10.350703260633679
 20
-1.8586290147569442
 30
0.0
 10
10.350703260633679
 20
0.0
 30
0.0
 10
10.350703260633679
 20
1.8586290147569442
 30
0.0
 10
9.3840094672309018
 20
3.3655137803819439
 30
0.0
 10
8.1916619194878457
 20
3.3655137803819439
 30
0.0
  0
ENDBLK
  5
373
100
AcDbEntity
  8
LAYER_1
100
AcDbBlockEnd
  0
BLOCK
  5
376
100
AcDbEntity
  8
LAYER_1
 62
     7
100
AcDbBlockBegin
  2
AI9-BLK49
 70
     0
 10
0.0
 20
0.0
 30
0.0
  3
AI9-BLK49
  1

  0
POLYLINE
  5
37E
100
AcDbEntity
  8
LAYER_1
 62
     7
100
AcDb2dPolyline
 66
     1
 10
0.0
 20
0.0
 30
0.0
 70
     1
  0
VERTEX
  5
37F
100
AcDbEntity
  8
LAYER_1
 62
     7
100
AcDbVertex
100
AcDb2dVertex
 10
8.191662
 20
-1.460376
 30
0.0
  0
VERTEX
  5
380
100
AcDbEntity
  8
LAYER_1
 62
     7
100
AcDbVertex
100
AcDb2dVertex
 10
-10.350359
 20
-1.460376
 30
0.0
  0
VERTEX
  5
381
100
AcDbEntity
  8
LAYER_1
 62
     7
100
AcDbVertex
100
AcDb2dVertex
 10
-10.350359
 20
1.460376
 30
0.0
  0
VERTEX
  5
382
100
AcDbEntity
  8
LAYER_1
 62
     7
100
AcDbVertex
100
AcDb2dVertex
 10
8.191662
 20
1.460376
 30
0.0
  0
SEQEND
  5
383
100
AcDbEntity
  8
LAYER_1
 62
     7
  0
POLYLINE
  5
378
100
AcDbEntity
  8
LAYER_1
 62
     7
100
AcDb2dPolyline
 66
     1
 10
0.0
 20
0.0
 30
0.0
 70
     1
  0
VERTEX
  5
379
100
AcDbEntity
  8
LAYER_1
 62
     7
100
AcDbVertex
100
AcDb2dVertex
 10
-1.333338
 20
-4.7625
 30
0.0
  0
VERTEX
  5
37A
100
AcDbEntity
  8
LAYER_1
 62
     7
100
AcDbVertex
100
AcDb2dVertex
 10
-7.429262
 20
-4.7625
 30
0.0
  0
VERTEX
  5
37B
100
AcDbEntity
  8
LAYER_1
 62
     7
100
AcDbVertex
100
AcDb2dVertex
 10
-7.429262
 20
4.7625
 30
0.0
  0
VERTEX
  5
37C
100
AcDbEntity
  8
LAYER_1
 62
     7
100
AcDbVertex
100
AcDb2dVertex
 10
-1.333338
 20
4.7625
 30
0.0
  0
SEQEND
  5
37D
100
AcDbEntity
  8
LAYER_1
 62
     7
  0
SPLINE
  5
377
100
AcDbEntity
  8
LAYER_1
 62
     7
100
AcDbSpline
210
0.0
220
0.0
230
1.0
 70
     8
 71
     3
 72
    14
 73
    10
 74
     0
 42
0.00000001
 43
0.00000001
 40
0.0
 40
0.0
 40
0.0
 40
0.0
 40
1.0
 40
1.0
 40
1.0
 40
2.0
 40
2.0
 40
2.0
 40
3.0
 40
3.0
 40
3.0
 40
3.0
 10
8.1916619194878457
 20
3.3655137803819439
 30
0.0
 10
8.1916619194878457
 20
3.3655137803819439
 30
0.0
 10
8.1916619194878457
 20
-3.3655137803819439
 30
0.0
 10
8.1916619194878457
 20
-3.3655137803819439
 30
0.0
 10
9.3840094672309018
 20
-3.3655137803819439
 30
0.0
 10
10.350703260633679
 20
-1.8586290147569442
 30
0.0
 10
10.350703260633679
 20
0.0
 30
0.0
 10
10.350703260633679
 20
1.8586290147569442
 30
0.0
 10
9.3840094672309018
 20
3.3655137803819439
 30
0.0
 10
8.1916619194878457
 20
3.3655137803819439
 30
0.0
  0
ENDBLK
  5
384
100
AcDbEntity
  8
LAYER_1
100
AcDbBlockEnd
  0
BLOCK
  5
387
100
AcDbEntity
  8
LAYER_1
 62
     7
100
AcDbBlockBegin
  2
AI9-BLK50
 70
     0
 10
0.0
 20
0.0
 30
0.0
  3
AI9-BLK50
  1

  0
POLYLINE
  5
38F
100
AcDbEntity
  8
LAYER_1
 62
     7
100
AcDb2dPolyline
 66
     1
 10
0.0
 20
0.0
 30
0.0
 70
     1
  0
VERTEX
  5
390
100
AcDbEntity
  8
LAYER_1
 62
     7
100
AcDbVertex
100
AcDb2dVertex
 10
8.191662
 20
-1.46072
 30
0.0
  0
VERTEX
  5
391
100
AcDbEntity
  8
LAYER_1
 62
     7
100
AcDbVertex
100
AcDb2dVertex
 10
-10.350359
 20
-1.46072
 30
0.0
  0
VERTEX
  5
392
100
AcDbEntity
  8
LAYER_1
 62
     7
100
AcDbVertex
100
AcDb2dVertex
 10
-10.350359
 20
1.460376
 30
0.0
  0
VERTEX
  5
393
100
AcDbEntity
  8
LAYER_1
 62
     7
100
AcDbVertex
100
AcDb2dVertex
 10
8.191662
 20
1.460376
 30
0.0
  0
SEQEND
  5
394
100
AcDbEntity
  8
LAYER_1
 62
     7
  0
POLYLINE
  5
389
100
AcDbEntity
  8
LAYER_1
 62
     7
100
AcDb2dPolyline
 66
     1
 10
0.0
 20
0.0
 30
0.0
 70
     1
  0
VERTEX
  5
38A
100
AcDbEntity
  8
LAYER_1
 62
     7
100
AcDbVertex
100
AcDb2dVertex
 10
-1.333338
 20
-4.7625
 30
0.0
  0
VERTEX
  5
38B
100
AcDbEntity
  8
LAYER_1
 62
     7
100
AcDbVertex
100
AcDb2dVertex
 10
-7.429262
 20
-4.7625
 30
0.0
  0
VERTEX
  5
38C
100
AcDbEntity
  8
LAYER_1
 62
     7
100
AcDbVertex
100
AcDb2dVertex
 10
-7.429262
 20
4.7625
 30
0.0
  0
VERTEX
  5
38D
100
AcDbEntity
  8
LAYER_1
 62
     7
100
AcDbVertex
100
AcDb2dVertex
 10
-1.333338
 20
4.7625
 30
0.0
  0
SEQEND
  5
38E
100
AcDbEntity
  8
LAYER_1
 62
     7
  0
SPLINE
  5
388
100
AcDbEntity
  8
LAYER_1
 62
     7
100
AcDbSpline
210
0.0
220
0.0
230
1.0
 70
     8
 71
     3
 72
    14
 73
    10
 74
     0
 42
0.00000001
 43
0.00000001
 40
0.0
 40
0.0
 40
0.0
 40
0.0
 40
1.0
 40
1.0
 40
1.0
 40
2.0
 40
2.0
 40
2.0
 40
3.0
 40
3.0
 40
3.0
 40
3.0
 10
8.1916619194878457
 20
3.3651692708333329
 30
0.0
 10
8.1916619194878457
 20
3.3651692708333329
 30
0.0
 10
8.1916619194878457
 20
-3.3658582899305554
 30
0.0
 10
8.1916619194878457
 20
-3.3658582899305554
 30
0.0
 10
9.3840094672309018
 20
-3.3658582899305554
 30
0.0
 10
10.350703260633679
 20
-1.8589735243055554
 30
0.0
 10
10.350703260633679
 20
0.0
 30
0.0
 10
10.350703260633679
 20
1.8582845052083332
 30
0.0
 10
9.3840094672309018
 20
3.3651692708333329
 30
0.0
 10
8.1916619194878457
 20
3.3651692708333329
 30
0.0
  0
ENDBLK
  5
395
100
AcDbEntity
  8
LAYER_1
100
AcDbBlockEnd
  0
BLOCK
  5
4AF
100
AcDbEntity
  8
LAYER_1
 62
     7
100
AcDbBlockBegin
  2
AI9-BLK51
 70
     0
 10
0.0
 20
0.0
 30
0.0
  3
AI9-BLK51
  1

  0
POLYLINE
  5
4B7
100
AcDbEntity
  8
LAYER_1
 62
     7
100
AcDb2dPolyline
 66
     1
 10
0.0
 20
0.0
 30
0.0
 70
     1
  0
VERTEX
  5
4B8
100
AcDbEntity
  8
LAYER_1
 62
     7
100
AcDbVertex
100
AcDb2dVertex
 10
8.191748
 20
-1.460548
 30
0.0
  0
VERTEX
  5
4B9
100
AcDbEntity
  8
LAYER_1
 62
     7
100
AcDbVertex
100
AcDb2dVertex
 10
-10.350445
 20
-1.460548
 30
0.0
  0
VERTEX
  5
4BA
100
AcDbEntity
  8
LAYER_1
 62
     7
100
AcDbVertex
100
AcDb2dVertex
 10
-10.350445
 20
1.460548
 30
0.0
  0
VERTEX
  5
4BB
100
AcDbEntity
  8
LAYER_1
 62
     7
100
AcDbVertex
100
AcDb2dVertex
 10
8.191748
 20
1.460548
 30
0.0
  0
SEQEND
  5
4BC
100
AcDbEntity
  8
LAYER_1
 62
     7
  0
POLYLINE
  5
4B1
100
AcDbEntity
  8
LAYER_1
 62
     7
100
AcDb2dPolyline
 66
     1
 10
0.0
 20
0.0
 30
0.0
 70
     1
  0
VERTEX
  5
4B2
100
AcDbEntity
  8
LAYER_1
 62
     7
100
AcDbVertex
100
AcDb2dVertex
 10
-1.333596
 20
-4.7625
 30
0.0
  0
VERTEX
  5
4B3
100
AcDbEntity
  8
LAYER_1
 62
     7
100
AcDbVertex
100
AcDb2dVertex
 10
-7.429348
 20
-4.7625
 30
0.0
  0
VERTEX
  5
4B4
100
AcDbEntity
  8
LAYER_1
 62
     7
100
AcDbVertex
100
AcDb2dVertex
 10
-7.429348
 20
4.7625
 30
0.0
  0
VERTEX
  5
4B5
100
AcDbEntity
  8
LAYER_1
 62
     7
100
AcDbVertex
100
AcDb2dVertex
 10
-1.333596
 20
4.7625
 30
0.0
  0
SEQEND
  5
4B6
100
AcDbEntity
  8
LAYER_1
 62
     7
  0
SPLINE
  5
4B0
100
AcDbEntity
  8
LAYER_1
 62
     7
100
AcDbSpline
210
0.0
220
0.0
230
1.0
 70
     8
 71
     3
 72
    14
 73
    10
 74
     0
 42
0.00000001
 43
0.00000001
 40
0.0
 40
0.0
 40
0.0
 40
0.0
 40
1.0
 40
1.0
 40
1.0
 40
2.0
 40
2.0
 40
2.0
 40
3.0
 40
3.0
 40
3.0
 40
3.0
 10
8.1917480468749986
 20
3.3655137803819439
 30
0.0
 10
8.1917480468749986
 20
3.3655137803819439
 30
0.0
 10
8.1917480468749986
 20
-3.3655137803819439
 30
0.0
 10
8.1917480468749986
 20
-3.3655137803819439
 30
0.0
 10
9.3840955946180546
 20
-3.3655137803819439
 30
0.0
 10
10.350789388020832
 20
-1.8586290147569442
 30
0.0
 10
10.350789388020832
 20
0.0
 30
0.0
 10
10.350789388020832
 20
1.8586290147569442
 30
0.0
 10
9.3840955946180546
 20
3.3655137803819439
 30
0.0
 10
8.1917480468749986
 20
3.3655137803819439
 30
0.0
  0
ENDBLK
  5
4BD
100
AcDbEntity
  8
LAYER_1
100
AcDbBlockEnd
  0
BLOCK
  5
4C0
100
AcDbEntity
  8
LAYER_1
 62
     7
100
AcDbBlockBegin
  2
AI9-BLK52
 70
     0
 10
0.0
 20
0.0
 30
0.0
  3
AI9-BLK52
  1

  0
POLYLINE
  5
4C8
100
AcDbEntity
  8
LAYER_1
 62
     7
100
AcDb2dPolyline
 66
     1
 10
0.0
 20
0.0
 30
0.0
 70
     1
  0
VERTEX
  5
4C9
100
AcDbEntity
  8
LAYER_1
 62
     7
100
AcDbVertex
100
AcDb2dVertex
 10
8.191748
 20
-1.460548
 30
0.0
  0
VERTEX
  5
4CA
100
AcDbEntity
  8
LAYER_1
 62
     7
100
AcDbVertex
100
AcDb2dVertex
 10
-10.350445
 20
-1.460548
 30
0.0
  0
VERTEX
  5
4CB
100
AcDbEntity
  8
LAYER_1
 62
     7
100
AcDbVertex
100
AcDb2dVertex
 10
-10.350445
 20
1.460548
 30
0.0
  0
VERTEX
  5
4CC
100
AcDbEntity
  8
LAYER_1
 62
     7
100
AcDbVertex
100
AcDb2dVertex
 10
8.191748
 20
1.460548
 30
0.0
  0
SEQEND
  5
4CD
100
AcDbEntity
  8
LAYER_1
 62
     7
  0
POLYLINE
  5
4C2
100
AcDbEntity
  8
LAYER_1
 62
     7
100
AcDb2dPolyline
 66
     1
 10
0.0
 20
0.0
 30
0.0
 70
     1
  0
VERTEX
  5
4C3
100
AcDbEntity
  8
LAYER_1
 62
     7
100
AcDbVertex
100
AcDb2dVertex
 10
-1.333596
 20
-4.7625
 30
0.0
  0
VERTEX
  5
4C4
100
AcDbEntity
  8
LAYER_1
 62
     7
100
AcDbVertex
100
AcDb2dVertex
 10
-7.429348
 20
-4.7625
 30
0.0
  0
VERTEX
  5
4C5
100
AcDbEntity
  8
LAYER_1
 62
     7
100
AcDbVertex
100
AcDb2dVertex
 10
-7.429348
 20
4.7625
 30
0.0
  0
VERTEX
  5
4C6
100
AcDbEntity
  8
LAYER_1
 62
     7
100
AcDbVertex
100
AcDb2dVertex
 10
-1.333596
 20
4.7625
 30
0.0
  0
SEQEND
  5
4C7
100
AcDbEntity
  8
LAYER_1
 62
     7
  0
SPLINE
  5
4C1
100
AcDbEntity
  8
LAYER_1
 62
     7
100
AcDbSpline
210
0.0
220
0.0
230
1.0
 70
     8
 71
     3
 72
    14
 73
    10
 74
     0
 42
0.00000001
 43
0.00000001
 40
0.0
 40
0.0
 40
0.0
 40
0.0
 40
1.0
 40
1.0
 40
1.0
 40
2.0
 40
2.0
 40
2.0
 40
3.0
 40
3.0
 40
3.0
 40
3.0
 10
8.1917480468749986
 20
3.3655137803819439
 30
0.0
 10
8.1917480468749986
 20
3.3655137803819439
 30
0.0
 10
8.1917480468749986
 20
-3.3655137803819439
 30
0.0
 10
8.1917480468749986
 20
-3.3655137803819439
 30
0.0
 10
9.3840955946180546
 20
-3.3655137803819439
 30
0.0
 10
10.350789388020832
 20
-1.8586290147569442
 30
0.0
 10
10.350789388020832
 20
0.0
 30
0.0
 10
10.350789388020832
 20
1.8586290147569442
 30
0.0
 10
9.3840955946180546
 20
3.3655137803819439
 30
0.0
 10
8.1917480468749986
 20
3.3655137803819439
 30
0.0
  0
ENDBLK
  5
4CE
100
AcDbEntity
  8
LAYER_1
100
AcDbBlockEnd
  0
BLOCK
  5
4D1
100
AcDbEntity
  8
LAYER_1
 62
     7
100
AcDbBlockBegin
  2
AI9-BLK53
 70
     0
 10
0.0
 20
0.0
 30
0.0
  3
AI9-BLK53
  1

  0
POLYLINE
  5
4D9
100
AcDbEntity
  8
LAYER_1
 62
     7
100
AcDb2dPolyline
 66
     1
 10
0.0
 20
0.0
 30
0.0
 70
     1
  0
VERTEX
  5
4DA
100
AcDbEntity
  8
LAYER_1
 62
     7
100
AcDbVertex
100
AcDb2dVertex
 10
8.191748
 20
-1.460548
 30
0.0
  0
VERTEX
  5
4DB
100
AcDbEntity
  8
LAYER_1
 62
     7
100
AcDbVertex
100
AcDb2dVertex
 10
-10.350445
 20
-1.460548
 30
0.0
  0
VERTEX
  5
4DC
100
AcDbEntity
  8
LAYER_1
 62
     7
100
AcDbVertex
100
AcDb2dVertex
 10
-10.350445
 20
1.460548
 30
0.0
  0
VERTEX
  5
4DD
100
AcDbEntity
  8
LAYER_1
 62
     7
100
AcDbVertex
100
AcDb2dVertex
 10
8.191748
 20
1.460548
 30
0.0
  0
SEQEND
  5
4DE
100
AcDbEntity
  8
LAYER_1
 62
     7
  0
POLYLINE
  5
4D3
100
AcDbEntity
  8
LAYER_1
 62
     7
100
AcDb2dPolyline
 66
     1
 10
0.0
 20
0.0
 30
0.0
 70
     1
  0
VERTEX
  5
4D4
100
AcDbEntity
  8
LAYER_1
 62
     7
100
AcDbVertex
100
AcDb2dVertex
 10
-1.333596
 20
-4.7625
 30
0.0
  0
VERTEX
  5
4D5
100
AcDbEntity
  8
LAYER_1
 62
     7
100
AcDbVertex
100
AcDb2dVertex
 10
-7.429348
 20
-4.7625
 30
0.0
  0
VERTEX
  5
4D6
100
AcDbEntity
  8
LAYER_1
 62
     7
100
AcDbVertex
100
AcDb2dVertex
 10
-7.429348
 20
4.7625
 30
0.0
  0
VERTEX
  5
4D7
100
AcDbEntity
  8
LAYER_1
 62
     7
100
AcDbVertex
100
AcDb2dVertex
 10
-1.333596
 20
4.7625
 30
0.0
  0
SEQEND
  5
4D8
100
AcDbEntity
  8
LAYER_1
 62
     7
  0
SPLINE
  5
4D2
100
AcDbEntity
  8
LAYER_1
 62
     7
100
AcDbSpline
210
0.0
220
0.0
230
1.0
 70
     8
 71
     3
 72
    14
 73
    10
 74
     0
 42
0.00000001
 43
0.00000001
 40
0.0
 40
0.0
 40
0.0
 40
0.0
 40
1.0
 40
1.0
 40
1.0
 40
2.0
 40
2.0
 40
2.0
 40
3.0
 40
3.0
 40
3.0
 40
3.0
 10
8.1917480468749986
 20
3.3655137803819439
 30
0.0
 10
8.1917480468749986
 20
3.3655137803819439
 30
0.0
 10
8.1917480468749986
 20
-3.3655137803819439
 30
0.0
 10
8.1917480468749986
 20
-3.3655137803819439
 30
0.0
 10
9.3840955946180546
 20
-3.3655137803819439
 30
0.0
 10
10.350789388020832
 20
-1.8586290147569442
 30
0.0
 10
10.350789388020832
 20
0.0
 30
0.0
 10
10.350789388020832
 20
1.8586290147569442
 30
0.0
 10
9.3840955946180546
 20
3.3655137803819439
 30
0.0
 10
8.1917480468749986
 20
3.3655137803819439
 30
0.0
  0
ENDBLK
  5
4DF
100
AcDbEntity
  8
LAYER_1
100
AcDbBlockEnd
  0
BLOCK
  5
500
100
AcDbEntity
  8
LAYER_1
 62
     7
100
AcDbBlockBegin
  2
AI9-BLK54
 70
     0
 10
0.0
 20
0.0
 30
0.0
  3
AI9-BLK54
  1

  0
POLYLINE
  5
508
100
AcDbEntity
  8
LAYER_1
 62
     7
100
AcDb2dPolyline
 66
     1
 10
0.0
 20
0.0
 30
0.0
 70
     1
  0
VERTEX
  5
509
100
AcDbEntity
  8
LAYER_1
 62
     7
100
AcDbVertex
100
AcDb2dVertex
 10
8.191834
 20
-1.460548
 30
0.0
  0
VERTEX
  5
50A
100
AcDbEntity
  8
LAYER_1
 62
     7
100
AcDbVertex
100
AcDb2dVertex
 10
-10.350531
 20
-1.460548
 30
0.0
  0
VERTEX
  5
50B
100
AcDbEntity
  8
LAYER_1
 62
     7
100
AcDbVertex
100
AcDb2dVertex
 10
-10.350531
 20
1.460548
 30
0.0
  0
VERTEX
  5
50C
100
AcDbEntity
  8
LAYER_1
 62
     7
100
AcDbVertex
100
AcDb2dVertex
 10
8.191834
 20
1.460548
 30
0.0
  0
SEQEND
  5
50D
100
AcDbEntity
  8
LAYER_1
 62
     7
  0
POLYLINE
  5
502
100
AcDbEntity
  8
LAYER_1
 62
     7
100
AcDb2dPolyline
 66
     1
 10
0.0
 20
0.0
 30
0.0
 70
     1
  0
VERTEX
  5
503
100
AcDbEntity
  8
LAYER_1
 62
     7
100
AcDbVertex
100
AcDb2dVertex
 10
-1.33351
 20
-4.7625
 30
0.0
  0
VERTEX
  5
504
100
AcDbEntity
  8
LAYER_1
 62
     7
100
AcDbVertex
100
AcDb2dVertex
 10
-7.429262
 20
-4.7625
 30
0.0
  0
VERTEX
  5
505
100
AcDbEntity
  8
LAYER_1
 62
     7
100
AcDbVertex
100
AcDb2dVertex
 10
-7.429262
 20
4.7625
 30
0.0
  0
VERTEX
  5
506
100
AcDbEntity
  8
LAYER_1
 62
     7
100
AcDbVertex
100
AcDb2dVertex
 10
-1.33351
 20
4.7625
 30
0.0
  0
SEQEND
  5
507
100
AcDbEntity
  8
LAYER_1
 62
     7
  0
SPLINE
  5
501
100
AcDbEntity
  8
LAYER_1
 62
     7
100
AcDbSpline
210
0.0
220
0.0
230
1.0
 70
     8
 71
     3
 72
    14
 73
    10
 74
     0
 42
0.00000001
 43
0.00000001
 40
0.0
 40
0.0
 40
0.0
 40
0.0
 40
1.0
 40
1.0
 40
1.0
 40
2.0
 40
2.0
 40
2.0
 40
3.0
 40
3.0
 40
3.0
 40
3.0
 10
8.1918341742621514
 20
3.3655137803819439
 30
0.0
 10
8.1918341742621514
 20
3.3655137803819439
 30
0.0
 10
8.1918341742621514
 20
-3.3655137803819439
 30
0.0
 10
8.1918341742621514
 20
-3.3655137803819439
 30
0.0
 10
9.3841817220052075
 20
-3.3655137803819439
 30
0.0
 10
10.350875515407985
 20
-1.8586290147569442
 30
0.0
 10
10.350875515407985
 20
0.0
 30
0.0
 10
10.350875515407985
 20
1.8586290147569442
 30
0.0
 10
9.3841817220052075
 20
3.3655137803819439
 30
0.0
 10
8.1918341742621514
 20
3.3655137803819439
 30
0.0
  0
ENDBLK
  5
50E
100
AcDbEntity
  8
LAYER_1
100
AcDbBlockEnd
  0
BLOCK
  5
511
100
AcDbEntity
  8
LAYER_1
 62
     7
100
AcDbBlockBegin
  2
AI9-BLK55
 70
     0
 10
0.0
 20
0.0
 30
0.0
  3
AI9-BLK55
  1

  0
POLYLINE
  5
519
100
AcDbEntity
  8
LAYER_1
 62
     7
100
AcDb2dPolyline
 66
     1
 10
0.0
 20
0.0
 30
0.0
 70
     1
  0
VERTEX
  5
51A
100
AcDbEntity
  8
LAYER_1
 62
     7
100
AcDbVertex
100
AcDb2dVertex
 10
8.191834
 20
-1.460548
 30
0.0
  0
VERTEX
  5
51B
100
AcDbEntity
  8
LAYER_1
 62
     7
100
AcDbVertex
100
AcDb2dVertex
 10
-10.350531
 20
-1.460548
 30
0.0
  0
VERTEX
  5
51C
100
AcDbEntity
  8
LAYER_1
 62
     7
100
AcDbVertex
100
AcDb2dVertex
 10
-10.350531
 20
1.460548
 30
0.0
  0
VERTEX
  5
51D
100
AcDbEntity
  8
LAYER_1
 62
     7
100
AcDbVertex
100
AcDb2dVertex
 10
8.191834
 20
1.460548
 30
0.0
  0
SEQEND
  5
51E
100
AcDbEntity
  8
LAYER_1
 62
     7
  0
POLYLINE
  5
513
100
AcDbEntity
  8
LAYER_1
 62
     7
100
AcDb2dPolyline
 66
     1
 10
0.0
 20
0.0
 30
0.0
 70
     1
  0
VERTEX
  5
514
100
AcDbEntity
  8
LAYER_1
 62
     7
100
AcDbVertex
100
AcDb2dVertex
 10
-1.33351
 20
-4.7625
 30
0.0
  0
VERTEX
  5
515
100
AcDbEntity
  8
LAYER_1
 62
     7
100
AcDbVertex
100
AcDb2dVertex
 10
-7.429262
 20
-4.7625
 30
0.0
  0
VERTEX
  5
516
100
AcDbEntity
  8
LAYER_1
 62
     7
100
AcDbVertex
100
AcDb2dVertex
 10
-7.429262
 20
4.7625
 30
0.0
  0
VERTEX
  5
517
100
AcDbEntity
  8
LAYER_1
 62
     7
100
AcDbVertex
100
AcDb2dVertex
 10
-1.33351
 20
4.7625
 30
0.0
  0
SEQEND
  5
518
100
AcDbEntity
  8
LAYER_1
 62
     7
  0
SPLINE
  5
512
100
AcDbEntity
  8
LAYER_1
 62
     7
100
AcDbSpline
210
0.0
220
0.0
230
1.0
 70
     8
 71
     3
 72
    14
 73
    10
 74
     0
 42
0.00000001
 43
0.00000001
 40
0.0
 40
0.0
 40
0.0
 40
0.0
 40
1.0
 40
1.0
 40
1.0
 40
2.0
 40
2.0
 40
2.0
 40
3.0
 40
3.0
 40
3.0
 40
3.0
 10
8.1918341742621514
 20
3.3655137803819439
 30
0.0
 10
8.1918341742621514
 20
3.3655137803819439
 30
0.0
 10
8.1918341742621514
 20
-3.3655137803819439
 30
0.0
 10
8.1918341742621514
 20
-3.3655137803819439
 30
0.0
 10
9.3841817220052075
 20
-3.3655137803819439
 30
0.0
 10
10.350875515407985
 20
-1.8586290147569442
 30
0.0
 10
10.350875515407985
 20
0.0
 30
0.0
 10
10.350875515407985
 20
1.8586290147569442
 30
0.0
 10
9.3841817220052075
 20
3.3655137803819439
 30
0.0
 10
8.1918341742621514
 20
3.3655137803819439
 30
0.0
  0
ENDBLK
  5
51F
100
AcDbEntity
  8
LAYER_1
100
AcDbBlockEnd
  0
BLOCK
  5
522
100
AcDbEntity
  8
LAYER_1
 62
     7
100
AcDbBlockBegin
  2
AI9-BLK56
 70
     0
 10
0.0
 20
0.0
 30
0.0
  3
AI9-BLK56
  1

  0
POLYLINE
  5
52A
100
AcDbEntity
  8
LAYER_1
 62
     7
100
AcDb2dPolyline
 66
     1
 10
0.0
 20
0.0
 30
0.0
 70
     1
  0
VERTEX
  5
52B
100
AcDbEntity
  8
LAYER_1
 62
     7
100
AcDbVertex
100
AcDb2dVertex
 10
8.191834
 20
-1.460548
 30
0.0
  0
VERTEX
  5
52C
100
AcDbEntity
  8
LAYER_1
 62
     7
100
AcDbVertex
100
AcDb2dVertex
 10
-10.350531
 20
-1.460548
 30
0.0
  0
VERTEX
  5
52D
100
AcDbEntity
  8
LAYER_1
 62
     7
100
AcDbVertex
100
AcDb2dVertex
 10
-10.350531
 20
1.460548
 30
0.0
  0
VERTEX
  5
52E
100
AcDbEntity
  8
LAYER_1
 62
     7
100
AcDbVertex
100
AcDb2dVertex
 10
8.191834
 20
1.460548
 30
0.0
  0
SEQEND
  5
52F
100
AcDbEntity
  8
LAYER_1
 62
     7
  0
POLYLINE
  5
524
100
AcDbEntity
  8
LAYER_1
 62
     7
100
AcDb2dPolyline
 66
     1
 10
0.0
 20
0.0
 30
0.0
 70
     1
  0
VERTEX
  5
525
100
AcDbEntity
  8
LAYER_1
 62
     7
100
AcDbVertex
100
AcDb2dVertex
 10
-1.33351
 20
-4.7625
 30
0.0
  0
VERTEX
  5
526
100
AcDbEntity
  8
LAYER_1
 62
     7
100
AcDbVertex
100
AcDb2dVertex
 10
-7.429262
 20
-4.7625
 30
0.0
  0
VERTEX
  5
527
100
AcDbEntity
  8
LAYER_1
 62
     7
100
AcDbVertex
100
AcDb2dVertex
 10
-7.429262
 20
4.7625
 30
0.0
  0
VERTEX
  5
528
100
AcDbEntity
  8
LAYER_1
 62
     7
100
AcDbVertex
100
AcDb2dVertex
 10
-1.33351
 20
4.7625
 30
0.0
  0
SEQEND
  5
529
100
AcDbEntity
  8
LAYER_1
 62
     7
  0
SPLINE
  5
523
100
AcDbEntity
  8
LAYER_1
 62
     7
100
AcDbSpline
210
0.0
220
0.0
230
1.0
 70
     8
 71
     3
 72
    14
 73
    10
 74
     0
 42
0.00000001
 43
0.00000001
 40
0.0
 40
0.0
 40
0.0
 40
0.0
 40
1.0
 40
1.0
 40
1.0
 40
2.0
 40
2.0
 40
2.0
 40
3.0
 40
3.0
 40
3.0
 40
3.0
 10
8.1918341742621514
 20
3.3655137803819439
 30
0.0
 10
8.1918341742621514
 20
3.3655137803819439
 30
0.0
 10
8.1918341742621514
 20
-3.3655137803819439
 30
0.0
 10
8.1918341742621514
 20
-3.3655137803819439
 30
0.0
 10
9.3841817220052075
 20
-3.3655137803819439
 30
0.0
 10
10.350875515407985
 20
-1.8586290147569442
 30
0.0
 10
10.350875515407985
 20
0.0
 30
0.0
 10
10.350875515407985
 20
1.8586290147569442
 30
0.0
 10
9.3841817220052075
 20
3.3655137803819439
 30
0.0
 10
8.1918341742621514
 20
3.3655137803819439
 30
0.0
  0
ENDBLK
  5
530
100
AcDbEntity
  8
LAYER_1
100
AcDbBlockEnd
  0
BLOCK
  5
551
100
AcDbEntity
  8
LAYER_1
 62
     7
100
AcDbBlockBegin
  2
AI9-BLK57
 70
     0
 10
0.0
 20
0.0
 30
0.0
  3
AI9-BLK57
  1

  0
POLYLINE
  5
559
100
AcDbEntity
  8
LAYER_1
 62
     7
100
AcDb2dPolyline
 66
     1
 10
0.0
 20
0.0
 30
0.0
 70
     1
  0
VERTEX
  5
55A
100
AcDbEntity
  8
LAYER_1
 62
     7
100
AcDbVertex
100
AcDb2dVertex
 10
8.191662
 20
-1.460548
 30
0.0
  0
VERTEX
  5
55B
100
AcDbEntity
  8
LAYER_1
 62
     7
100
AcDbVertex
100
AcDb2dVertex
 10
-10.350359
 20
-1.460548
 30
0.0
  0
VERTEX
  5
55C
100
AcDbEntity
  8
LAYER_1
 62
     7
100
AcDbVertex
100
AcDb2dVertex
 10
-10.350359
 20
1.460548
 30
0.0
  0
VERTEX
  5
55D
100
AcDbEntity
  8
LAYER_1
 62
     7
100
AcDbVertex
100
AcDb2dVertex
 10
8.191662
 20
1.460548
 30
0.0
  0
SEQEND
  5
55E
100
AcDbEntity
  8
LAYER_1
 62
     7
  0
POLYLINE
  5
553
100
AcDbEntity
  8
LAYER_1
 62
     7
100
AcDb2dPolyline
 66
     1
 10
0.0
 20
0.0
 30
0.0
 70
     1
  0
VERTEX
  5
554
100
AcDbEntity
  8
LAYER_1
 62
     7
100
AcDbVertex
100
AcDb2dVertex
 10
-1.333338
 20
-4.7625
 30
0.0
  0
VERTEX
  5
555
100
AcDbEntity
  8
LAYER_1
 62
     7
100
AcDbVertex
100
AcDb2dVertex
 10
-7.429262
 20
-4.7625
 30
0.0
  0
VERTEX
  5
556
100
AcDbEntity
  8
LAYER_1
 62
     7
100
AcDbVertex
100
AcDb2dVertex
 10
-7.429262
 20
4.7625
 30
0.0
  0
VERTEX
  5
557
100
AcDbEntity
  8
LAYER_1
 62
     7
100
AcDbVertex
100
AcDb2dVertex
 10
-1.333338
 20
4.7625
 30
0.0
  0
SEQEND
  5
558
100
AcDbEntity
  8
LAYER_1
 62
     7
  0
SPLINE
  5
552
100
AcDbEntity
  8
LAYER_1
 62
     7
100
AcDbSpline
210
0.0
220
0.0
230
1.0
 70
     8
 71
     3
 72
    14
 73
    10
 74
     0
 42
0.00000001
 43
0.00000001
 40
0.0
 40
0.0
 40
0.0
 40
0.0
 40
1.0
 40
1.0
 40
1.0
 40
2.0
 40
2.0
 40
2.0
 40
3.0
 40
3.0
 40
3.0
 40
3.0
 10
8.1916619194878457
 20
3.3655137803819439
 30
0.0
 10
8.1916619194878457
 20
3.3655137803819439
 30
0.0
 10
8.1916619194878457
 20
-3.3655137803819439
 30
0.0
 10
8.1916619194878457
 20
-3.3655137803819439
 30
0.0
 10
9.3840094672309018
 20
-3.3655137803819439
 30
0.0
 10
10.350703260633679
 20
-1.8586290147569442
 30
0.0
 10
10.350703260633679
 20
0.0
 30
0.0
 10
10.350703260633679
 20
1.8586290147569442
 30
0.0
 10
9.3840094672309018
 20
3.3655137803819439
 30
0.0
 10
8.1916619194878457
 20
3.3655137803819439
 30
0.0
  0
ENDBLK
  5
55F
100
AcDbEntity
  8
LAYER_1
100
AcDbBlockEnd
  0
BLOCK
  5
562
100
AcDbEntity
  8
LAYER_1
 62
     7
100
AcDbBlockBegin
  2
AI9-BLK58
 70
     0
 10
0.0
 20
0.0
 30
0.0
  3
AI9-BLK58
  1

  0
POLYLINE
  5
56A
100
AcDbEntity
  8
LAYER_1
 62
     7
100
AcDb2dPolyline
 66
     1
 10
0.0
 20
0.0
 30
0.0
 70
     1
  0
VERTEX
  5
56B
100
AcDbEntity
  8
LAYER_1
 62
     7
100
AcDbVertex
100
AcDb2dVertex
 10
8.191662
 20
-1.460548
 30
0.0
  0
VERTEX
  5
56C
100
AcDbEntity
  8
LAYER_1
 62
     7
100
AcDbVertex
100
AcDb2dVertex
 10
-10.350359
 20
-1.460548
 30
0.0
  0
VERTEX
  5
56D
100
AcDbEntity
  8
LAYER_1
 62
     7
100
AcDbVertex
100
AcDb2dVertex
 10
-10.350359
 20
1.460548
 30
0.0
  0
VERTEX
  5
56E
100
AcDbEntity
  8
LAYER_1
 62
     7
100
AcDbVertex
100
AcDb2dVertex
 10
8.191662
 20
1.460548
 30
0.0
  0
SEQEND
  5
56F
100
AcDbEntity
  8
LAYER_1
 62
     7
  0
POLYLINE
  5
564
100
AcDbEntity
  8
LAYER_1
 62
     7
100
AcDb2dPolyline
 66
     1
 10
0.0
 20
0.0
 30
0.0
 70
     1
  0
VERTEX
  5
565
100
AcDbEntity
  8
LAYER_1
 62
     7
100
AcDbVertex
100
AcDb2dVertex
 10
-1.333338
 20
-4.7625
 30
0.0
  0
VERTEX
  5
566
100
AcDbEntity
  8
LAYER_1
 62
     7
100
AcDbVertex
100
AcDb2dVertex
 10
-7.429262
 20
-4.7625
 30
0.0
  0
VERTEX
  5
567
100
AcDbEntity
  8
LAYER_1
 62
     7
100
AcDbVertex
100
AcDb2dVertex
 10
-7.429262
 20
4.7625
 30
0.0
  0
VERTEX
  5
568
100
AcDbEntity
  8
LAYER_1
 62
     7
100
AcDbVertex
100
AcDb2dVertex
 10
-1.333338
 20
4.7625
 30
0.0
  0
SEQEND
  5
569
100
AcDbEntity
  8
LAYER_1
 62
     7
  0
SPLINE
  5
563
100
AcDbEntity
  8
LAYER_1
 62
     7
100
AcDbSpline
210
0.0
220
0.0
230
1.0
 70
     8
 71
     3
 72
    14
 73
    10
 74
     0
 42
0.00000001
 43
0.00000001
 40
0.0
 40
0.0
 40
0.0
 40
0.0
 40
1.0
 40
1.0
 40
1.0
 40
2.0
 40
2.0
 40
2.0
 40
3.0
 40
3.0
 40
3.0
 40
3.0
 10
8.1916619194878457
 20
3.3655137803819439
 30
0.0
 10
8.1916619194878457
 20
3.3655137803819439
 30
0.0
 10
8.1916619194878457
 20
-3.3655137803819439
 30
0.0
 10
8.1916619194878457
 20
-3.3655137803819439
 30
0.0
 10
9.3840094672309018
 20
-3.3655137803819439
 30
0.0
 10
10.350703260633679
 20
-1.8586290147569442
 30
0.0
 10
10.350703260633679
 20
0.0
 30
0.0
 10
10.350703260633679
 20
1.8586290147569442
 30
0.0
 10
9.3840094672309018
 20
3.3655137803819439
 30
0.0
 10
8.1916619194878457
 20
3.3655137803819439
 30
0.0
  0
ENDBLK
  5
570
100
AcDbEntity
  8
LAYER_1
100
AcDbBlockEnd
  0
BLOCK
  5
573
100
AcDbEntity
  8
LAYER_1
 62
     7
100
AcDbBlockBegin
  2
AI9-BLK59
 70
     0
 10
0.0
 20
0.0
 30
0.0
  3
AI9-BLK59
  1

  0
POLYLINE
  5
57B
100
AcDbEntity
  8
LAYER_1
 62
     7
100
AcDb2dPolyline
 66
     1
 10
0.0
 20
0.0
 30
0.0
 70
     1
  0
VERTEX
  5
57C
100
AcDbEntity
  8
LAYER_1
 62
     7
100
AcDbVertex
100
AcDb2dVertex
 10
8.191662
 20
-1.460548
 30
0.0
  0
VERTEX
  5
57D
100
AcDbEntity
  8
LAYER_1
 62
     7
100
AcDbVertex
100
AcDb2dVertex
 10
-10.350359
 20
-1.460548
 30
0.0
  0
VERTEX
  5
57E
100
AcDbEntity
  8
LAYER_1
 62
     7
100
AcDbVertex
100
AcDb2dVertex
 10
-10.350359
 20
1.460548
 30
0.0
  0
VERTEX
  5
57F
100
AcDbEntity
  8
LAYER_1
 62
     7
100
AcDbVertex
100
AcDb2dVertex
 10
8.191662
 20
1.460548
 30
0.0
  0
SEQEND
  5
580
100
AcDbEntity
  8
LAYER_1
 62
     7
  0
POLYLINE
  5
575
100
AcDbEntity
  8
LAYER_1
 62
     7
100
AcDb2dPolyline
 66
     1
 10
0.0
 20
0.0
 30
0.0
 70
     1
  0
VERTEX
  5
576
100
AcDbEntity
  8
LAYER_1
 62
     7
100
AcDbVertex
100
AcDb2dVertex
 10
-1.333338
 20
-4.7625
 30
0.0
  0
VERTEX
  5
577
100
AcDbEntity
  8
LAYER_1
 62
     7
100
AcDbVertex
100
AcDb2dVertex
 10
-7.429262
 20
-4.7625
 30
0.0
  0
VERTEX
  5
578
100
AcDbEntity
  8
LAYER_1
 62
     7
100
AcDbVertex
100
AcDb2dVertex
 10
-7.429262
 20
4.7625
 30
0.0
  0
VERTEX
  5
579
100
AcDbEntity
  8
LAYER_1
 62
     7
100
AcDbVertex
100
AcDb2dVertex
 10
-1.333338
 20
4.7625
 30
0.0
  0
SEQEND
  5
57A
100
AcDbEntity
  8
LAYER_1
 62
     7
  0
SPLINE
  5
574
100
AcDbEntity
  8
LAYER_1
 62
     7
100
AcDbSpline
210
0.0
220
0.0
230
1.0
 70
     8
 71
     3
 72
    14
 73
    10
 74
     0
 42
0.00000001
 43
0.00000001
 40
0.0
 40
0.0
 40
0.0
 40
0.0
 40
1.0
 40
1.0
 40
1.0
 40
2.0
 40
2.0
 40
2.0
 40
3.0
 40
3.0
 40
3.0
 40
3.0
 10
8.1916619194878457
 20
3.3655137803819439
 30
0.0
 10
8.1916619194878457
 20
3.3655137803819439
 30
0.0
 10
8.1916619194878457
 20
-3.3655137803819439
 30
0.0
 10
8.1916619194878457
 20
-3.3655137803819439
 30
0.0
 10
9.3840094672309018
 20
-3.3655137803819439
 30
0.0
 10
10.350703260633679
 20
-1.8586290147569442
 30
0.0
 10
10.350703260633679
 20
0.0
 30
0.0
 10
10.350703260633679
 20
1.8586290147569442
 30
0.0
 10
9.3840094672309018
 20
3.3655137803819439
 30
0.0
 10
8.1916619194878457
 20
3.3655137803819439
 30
0.0
  0
ENDBLK
  5
581
100
AcDbEntity
  8
LAYER_1
100
AcDbBlockEnd
  0
BLOCK
  5
5A2
100
AcDbEntity
  8
LAYER_1
 62
     7
100
AcDbBlockBegin
  2
AI9-BLK60
 70
     0
 10
0.0
 20
0.0
 30
0.0
  3
AI9-BLK60
  1

  0
POLYLINE
  5
5AA
100
AcDbEntity
  8
LAYER_1
 62
     7
100
AcDb2dPolyline
 66
     1
 10
0.0
 20
0.0
 30
0.0
 70
     1
  0
VERTEX
  5
5AB
100
AcDbEntity
  8
LAYER_1
 62
     7
100
AcDbVertex
100
AcDb2dVertex
 10
8.191662
 20
-1.460548
 30
0.0
  0
VERTEX
  5
5AC
100
AcDbEntity
  8
LAYER_1
 62
     7
100
AcDbVertex
100
AcDb2dVertex
 10
-10.350359
 20
-1.460548
 30
0.0
  0
VERTEX
  5
5AD
100
AcDbEntity
  8
LAYER_1
 62
     7
100
AcDbVertex
100
AcDb2dVertex
 10
-10.350359
 20
1.460548
 30
0.0
  0
VERTEX
  5
5AE
100
AcDbEntity
  8
LAYER_1
 62
     7
100
AcDbVertex
100
AcDb2dVertex
 10
8.191662
 20
1.460548
 30
0.0
  0
SEQEND
  5
5AF
100
AcDbEntity
  8
LAYER_1
 62
     7
  0
POLYLINE
  5
5A4
100
AcDbEntity
  8
LAYER_1
 62
     7
100
AcDb2dPolyline
 66
     1
 10
0.0
 20
0.0
 30
0.0
 70
     1
  0
VERTEX
  5
5A5
100
AcDbEntity
  8
LAYER_1
 62
     7
100
AcDbVertex
100
AcDb2dVertex
 10
-1.333338
 20
-4.7625
 30
0.0
  0
VERTEX
  5
5A6
100
AcDbEntity
  8
LAYER_1
 62
     7
100
AcDbVertex
100
AcDb2dVertex
 10
-7.429262
 20
-4.7625
 30
0.0
  0
VERTEX
  5
5A7
100
AcDbEntity
  8
LAYER_1
 62
     7
100
AcDbVertex
100
AcDb2dVertex
 10
-7.429262
 20
4.7625
 30
0.0
  0
VERTEX
  5
5A8
100
AcDbEntity
  8
LAYER_1
 62
     7
100
AcDbVertex
100
AcDb2dVertex
 10
-1.333338
 20
4.7625
 30
0.0
  0
SEQEND
  5
5A9
100
AcDbEntity
  8
LAYER_1
 62
     7
  0
SPLINE
  5
5A3
100
AcDbEntity
  8
LAYER_1
 62
     7
100
AcDbSpline
210
0.0
220
0.0
230
1.0
 70
     8
 71
     3
 72
    14
 73
    10
 74
     0
 42
0.00000001
 43
0.00000001
 40
0.0
 40
0.0
 40
0.0
 40
0.0
 40
1.0
 40
1.0
 40
1.0
 40
2.0
 40
2.0
 40
2.0
 40
3.0
 40
3.0
 40
3.0
 40
3.0
 10
8.1916619194878457
 20
3.3655137803819439
 30
0.0
 10
8.1916619194878457
 20
3.3655137803819439
 30
0.0
 10
8.1916619194878457
 20
-3.3655137803819439
 30
0.0
 10
8.1916619194878457
 20
-3.3655137803819439
 30
0.0
 10
9.3840094672309018
 20
-3.3655137803819439
 30
0.0
 10
10.350703260633679
 20
-1.8586290147569442
 30
0.0
 10
10.350703260633679
 20
0.0
 30
0.0
 10
10.350703260633679
 20
1.8586290147569442
 30
0.0
 10
9.3840094672309018
 20
3.3655137803819439
 30
0.0
 10
8.1916619194878457
 20
3.3655137803819439
 30
0.0
  0
ENDBLK
  5
5B0
100
AcDbEntity
  8
LAYER_1
100
AcDbBlockEnd
  0
BLOCK
  5
5B3
100
AcDbEntity
  8
LAYER_1
 62
     7
100
AcDbBlockBegin
  2
AI9-BLK61
 70
     0
 10
0.0
 20
0.0
 30
0.0
  3
AI9-BLK61
  1

  0
POLYLINE
  5
5BB
100
AcDbEntity
  8
LAYER_1
 62
     7
100
AcDb2dPolyline
 66
     1
 10
0.0
 20
0.0
 30
0.0
 70
     1
  0
VERTEX
  5
5BC
100
AcDbEntity
  8
LAYER_1
 62
     7
100
AcDbVertex
100
AcDb2dVertex
 10
8.191662
 20
-1.460548
 30
0.0
  0
VERTEX
  5
5BD
100
AcDbEntity
  8
LAYER_1
 62
     7
100
AcDbVertex
100
AcDb2dVertex
 10
-10.350359
 20
-1.460548
 30
0.0
  0
VERTEX
  5
5BE
100
AcDbEntity
  8
LAYER_1
 62
     7
100
AcDbVertex
100
AcDb2dVertex
 10
-10.350359
 20
1.460548
 30
0.0
  0
VERTEX
  5
5BF
100
AcDbEntity
  8
LAYER_1
 62
     7
100
AcDbVertex
100
AcDb2dVertex
 10
8.191662
 20
1.460548
 30
0.0
  0
SEQEND
  5
5C0
100
AcDbEntity
  8
LAYER_1
 62
     7
  0
POLYLINE
  5
5B5
100
AcDbEntity
  8
LAYER_1
 62
     7
100
AcDb2dPolyline
 66
     1
 10
0.0
 20
0.0
 30
0.0
 70
     1
  0
VERTEX
  5
5B6
100
AcDbEntity
  8
LAYER_1
 62
     7
100
AcDbVertex
100
AcDb2dVertex
 10
-1.333338
 20
-4.7625
 30
0.0
  0
VERTEX
  5
5B7
100
AcDbEntity
  8
LAYER_1
 62
     7
100
AcDbVertex
100
AcDb2dVertex
 10
-7.429262
 20
-4.7625
 30
0.0
  0
VERTEX
  5
5B8
100
AcDbEntity
  8
LAYER_1
 62
     7
100
AcDbVertex
100
AcDb2dVertex
 10
-7.429262
 20
4.7625
 30
0.0
  0
VERTEX
  5
5B9
100
AcDbEntity
  8
LAYER_1
 62
     7
100
AcDbVertex
100
AcDb2dVertex
 10
-1.333338
 20
4.7625
 30
0.0
  0
SEQEND
  5
5BA
100
AcDbEntity
  8
LAYER_1
 62
     7
  0
SPLINE
  5
5B4
100
AcDbEntity
  8
LAYER_1
 62
     7
100
AcDbSpline
210
0.0
220
0.0
230
1.0
 70
     8
 71
     3
 72
    14
 73
    10
 74
     0
 42
0.00000001
 43
0.00000001
 40
0.0
 40
0.0
 40
0.0
 40
0.0
 40
1.0
 40
1.0
 40
1.0
 40
2.0
 40
2.0
 40
2.0
 40
3.0
 40
3.0
 40
3.0
 40
3.0
 10
8.1916619194878457
 20
3.3655137803819439
 30
0.0
 10
8.1916619194878457
 20
3.3655137803819439
 30
0.0
 10
8.1916619194878457
 20
-3.3655137803819439
 30
0.0
 10
8.1916619194878457
 20
-3.3655137803819439
 30
0.0
 10
9.3840094672309018
 20
-3.3655137803819439
 30
0.0
 10
10.350703260633679
 20
-1.8586290147569442
 30
0.0
 10
10.350703260633679
 20
0.0
 30
0.0
 10
10.350703260633679
 20
1.8586290147569442
 30
0.0
 10
9.3840094672309018
 20
3.3655137803819439
 30
0.0
 10
8.1916619194878457
 20
3.3655137803819439
 30
0.0
  0
ENDBLK
  5
5C1
100
AcDbEntity
  8
LAYER_1
100
AcDbBlockEnd
  0
BLOCK
  5
5C4
100
AcDbEntity
  8
LAYER_1
 62
     7
100
AcDbBlockBegin
  2
AI9-BLK62
 70
     0
 10
0.0
 20
0.0
 30
0.0
  3
AI9-BLK62
  1

  0
POLYLINE
  5
5CC
100
AcDbEntity
  8
LAYER_1
 62
     7
100
AcDb2dPolyline
 66
     1
 10
0.0
 20
0.0
 30
0.0
 70
     1
  0
VERTEX
  5
5CD
100
AcDbEntity
  8
LAYER_1
 62
     7
100
AcDbVertex
100
AcDb2dVertex
 10
8.191662
 20
-1.460548
 30
0.0
  0
VERTEX
  5
5CE
100
AcDbEntity
  8
LAYER_1
 62
     7
100
AcDbVertex
100
AcDb2dVertex
 10
-10.350359
 20
-1.460548
 30
0.0
  0
VERTEX
  5
5CF
100
AcDbEntity
  8
LAYER_1
 62
     7
100
AcDbVertex
100
AcDb2dVertex
 10
-10.350359
 20
1.460548
 30
0.0
  0
VERTEX
  5
5D0
100
AcDbEntity
  8
LAYER_1
 62
     7
100
AcDbVertex
100
AcDb2dVertex
 10
8.191662
 20
1.460548
 30
0.0
  0
SEQEND
  5
5D1
100
AcDbEntity
  8
LAYER_1
 62
     7
  0
POLYLINE
  5
5C6
100
AcDbEntity
  8
LAYER_1
 62
     7
100
AcDb2dPolyline
 66
     1
 10
0.0
 20
0.0
 30
0.0
 70
     1
  0
VERTEX
  5
5C7
100
AcDbEntity
  8
LAYER_1
 62
     7
100
AcDbVertex
100
AcDb2dVertex
 10
-1.333338
 20
-4.7625
 30
0.0
  0
VERTEX
  5
5C8
100
AcDbEntity
  8
LAYER_1
 62
     7
100
AcDbVertex
100
AcDb2dVertex
 10
-7.429262
 20
-4.7625
 30
0.0
  0
VERTEX
  5
5C9
100
AcDbEntity
  8
LAYER_1
 62
     7
100
AcDbVertex
100
AcDb2dVertex
 10
-7.429262
 20
4.7625
 30
0.0
  0
VERTEX
  5
5CA
100
AcDbEntity
  8
LAYER_1
 62
     7
100
AcDbVertex
100
AcDb2dVertex
 10
-1.333338
 20
4.7625
 30
0.0
  0
SEQEND
  5
5CB
100
AcDbEntity
  8
LAYER_1
 62
     7
  0
SPLINE
  5
5C5
100
AcDbEntity
  8
LAYER_1
 62
     7
100
AcDbSpline
210
0.0
220
0.0
230
1.0
 70
     8
 71
     3
 72
    14
 73
    10
 74
     0
 42
0.00000001
 43
0.00000001
 40
0.0
 40
0.0
 40
0.0
 40
0.0
 40
1.0
 40
1.0
 40
1.0
 40
2.0
 40
2.0
 40
2.0
 40
3.0
 40
3.0
 40
3.0
 40
3.0
 10
8.1916619194878457
 20
3.3655137803819439
 30
0.0
 10
8.1916619194878457
 20
3.3655137803819439
 30
0.0
 10
8.1916619194878457
 20
-3.3655137803819439
 30
0.0
 10
8.1916619194878457
 20
-3.3655137803819439
 30
0.0
 10
9.3840094672309018
 20
-3.3655137803819439
 30
0.0
 10
10.350703260633679
 20
-1.8586290147569442
 30
0.0
 10
10.350703260633679
 20
0.0
 30
0.0
 10
10.350703260633679
 20
1.8586290147569442
 30
0.0
 10
9.3840094672309018
 20
3.3655137803819439
 30
0.0
 10
8.1916619194878457
 20
3.3655137803819439
 30
0.0
  0
ENDBLK
  5
5D2
100
AcDbEntity
  8
LAYER_1
100
AcDbBlockEnd
  0
ENDSEC
  0
SECTION
  2
ENTITIES
  0
POLYLINE
  5
5F1
100
AcDbEntity
  8
LAYER_1
 62
     7
100
AcDb2dPolyline
 66
     1
 10
0.0
 20
0.0
 30
0.0
 70
     1
  0
VERTEX
  5
5F2
100
AcDbEntity
  8
LAYER_1
 62
     7
100
AcDbVertex
100
AcDb2dVertex
 10
447.272613
 20
190.533073
 30
0.0
  0
VERTEX
  5
5F3
100
AcDbEntity
  8
LAYER_1
 62
     7
100
AcDbVertex
100
AcDb2dVertex
 10
476.620348
 20
190.533073
 30
0.0
  0
VERTEX
  5
5F4
100
AcDbEntity
  8
LAYER_1
 62
     7
100
AcDbVertex
100
AcDb2dVertex
 10
476.620348
 20
157.33441
 30
0.0
  0
VERTEX
  5
5F5
100
AcDbEntity
  8
LAYER_1
 62
     7
100
AcDbVertex
100
AcDb2dVertex
 10
447.272613
 20
157.33441
 30
0.0
  0
SEQEND
  5
5F6
100
AcDbEntity
  8
LAYER_1
 62
     7
  0
POLYLINE
  5
5EB
100
AcDbEntity
  8
LAYER_1
 62
     7
100
AcDb2dPolyline
 66
     1
 10
0.0
 20
0.0
 30
0.0
 70
     1
  0
VERTEX
  5
5EC
100
AcDbEntity
  8
LAYER_1
 62
     7
100
AcDbVertex
100
AcDb2dVertex
 10
450.099658
 20
600.284806
 30
0.0
  0
VERTEX
  5
5ED
100
AcDbEntity
  8
LAYER_1
 62
     7
100
AcDbVertex
100
AcDb2dVertex
 10
446.924658
 20
600.284806
 30
0.0
  0
VERTEX
  5
5EE
100
AcDbEntity
  8
LAYER_1
 62
     7
100
AcDbVertex
100
AcDb2dVertex
 10
446.924658
 20
628.057271
 30
0.0
  0
VERTEX
  5
5EF
100
AcDbEntity
  8
LAYER_1
 62
     7
100
AcDbVertex
100
AcDb2dVertex
 10
450.099658
 20
628.057271
 30
0.0
  0
SEQEND
  5
5F0
100
AcDbEntity
  8
LAYER_1
 62
     7
  0
POLYLINE
  5
5E5
100
AcDbEntity
  8
LAYER_1
 62
     7
100
AcDb2dPolyline
 66
     1
 10
0.0
 20
0.0
 30
0.0
 70
     1
  0
VERTEX
  5
5E6
100
AcDbEntity
  8
LAYER_1
 62
     7
100
AcDbVertex
100
AcDb2dVertex
 10
446.924658
 20
558.296672
 30
0.0
  0
VERTEX
  5
5E7
100
AcDbEntity
  8
LAYER_1
 62
     7
100
AcDbVertex
100
AcDb2dVertex
 10
443.749658
 20
558.296672
 30
0.0
  0
VERTEX
  5
5E8
100
AcDbEntity
  8
LAYER_1
 62
     7
100
AcDbVertex
100
AcDb2dVertex
 10
443.749658
 20
600.284806
 30
0.0
  0
VERTEX
  5
5E9
100
AcDbEntity
  8
LAYER_1
 62
     7
100
AcDbVertex
100
AcDb2dVertex
 10
446.924658
 20
600.284806
 30
0.0
  0
SEQEND
  5
5EA
100
AcDbEntity
  8
LAYER_1
 62
     7
  0
POLYLINE
  5
5DF
100
AcDbEntity
  8
LAYER_1
 62
     7
100
AcDb2dPolyline
 66
     1
 10
0.0
 20
0.0
 30
0.0
 70
     1
  0
VERTEX
  5
5E0
100
AcDbEntity
  8
LAYER_1
 62
     7
100
AcDbVertex
100
AcDb2dVertex
 10
453.274658
 20
558.296672
 30
0.0
  0
VERTEX
  5
5E1
100
AcDbEntity
  8
LAYER_1
 62
     7
100
AcDbVertex
100
AcDb2dVertex
 10
450.099658
 20
558.296672
 30
0.0
  0
VERTEX
  5
5E2
100
AcDbEntity
  8
LAYER_1
 62
     7
100
AcDbVertex
100
AcDb2dVertex
 10
450.099658
 20
600.284806
 30
0.0
  0
VERTEX
  5
5E3
100
AcDbEntity
  8
LAYER_1
 62
     7
100
AcDbVertex
100
AcDb2dVertex
 10
453.274658
 20
600.284806
 30
0.0
  0
SEQEND
  5
5E4
100
AcDbEntity
  8
LAYER_1
 62
     7
  0
POLYLINE
  5
5D9
100
AcDbEntity
  8
LAYER_1
 62
     7
100
AcDb2dPolyline
 66
     1
 10
0.0
 20
0.0
 30
0.0
 70
     1
  0
VERTEX
  5
5DA
100
AcDbEntity
  8
LAYER_1
 62
     7
100
AcDbVertex
100
AcDb2dVertex
 10
446.924658
 20
628.210923
 30
0.0
  0
VERTEX
  5
5DB
100
AcDbEntity
  8
LAYER_1
 62
     7
100
AcDbVertex
100
AcDb2dVertex
 10
443.749658
 20
628.210923
 30
0.0
  0
VERTEX
  5
5DC
100
AcDbEntity
  8
LAYER_1
 62
     7
100
AcDbVertex
100
AcDb2dVertex
 10
443.749658
 20
647.0537
 30
0.0
  0
VERTEX
  5
5DD
100
AcDbEntity
  8
LAYER_1
 62
     7
100
AcDbVertex
100
AcDb2dVertex
 10
446.924658
 20
647.0537
 30
0.0
  0
SEQEND
  5
5DE
100
AcDbEntity
  8
LAYER_1
 62
     7
  0
POLYLINE
  5
5D3
100
AcDbEntity
  8
LAYER_1
 62
     7
100
AcDb2dPolyline
 66
     1
 10
0.0
 20
0.0
 30
0.0
 70
     1
  0
VERTEX
  5
5D4
100
AcDbEntity
  8
LAYER_1
 62
     7
100
AcDbVertex
100
AcDb2dVertex
 10
453.274658
 20
628.210923
 30
0.0
  0
VERTEX
  5
5D5
100
AcDbEntity
  8
LAYER_1
 62
     7
100
AcDbVertex
100
AcDb2dVertex
 10
450.099658
 20
628.210923
 30
0.0
  0
VERTEX
  5
5D6
100
AcDbEntity
  8
LAYER_1
 62
     7
100
AcDbVertex
100
AcDb2dVertex
 10
450.099658
 20
647.0537
 30
0.0
  0
VERTEX
  5
5D7
100
AcDbEntity
  8
LAYER_1
 62
     7
100
AcDbVertex
100
AcDb2dVertex
 10
453.274658
 20
647.0537
 30
0.0
  0
SEQEND
  5
5D8
100
AcDbEntity
  8
LAYER_1
 62
     7
  0
INSERT
  5
5C3
100
AcDbEntity
  8
LAYER_1
 62
     7
100
AcDbBlockReference
  2
AI9-BLK62
 10
445.082996
 20
628.057271
 30
0.0
  0
INSERT
  5
5B2
100
AcDbEntity
  8
LAYER_1
 62
     7
100
AcDbBlockReference
  2
AI9-BLK61
 10
445.082996
 20
600.284806
 30
0.0
  0
INSERT
  5
5A1
100
AcDbEntity
  8
LAYER_1
 62
     7
100
AcDbBlockReference
  2
AI9-BLK60
 10
445.082996
 20
558.296672
 30
0.0
  0
POLYLINE
  5
59A
100
AcDbEntity
  8
LAYER_1
 62
     7
100
AcDb2dPolyline
 66
     1
 10
0.0
 20
0.0
 30
0.0
 70
     1
  0
VERTEX
  5
59B
100
AcDbEntity
  8
LAYER_1
 62
     7
100
AcDbVertex
100
AcDb2dVertex
 10
425.101529
 20
595.743998
 30
0.0
  0
VERTEX
  5
59C
100
AcDbEntity
  8
LAYER_1
 62
     7
100
AcDbVertex
100
AcDb2dVertex
 10
421.926529
 20
595.743998
 30
0.0
  0
VERTEX
  5
59D
100
AcDbEntity
  8
LAYER_1
 62
     7
100
AcDbVertex
100
AcDb2dVertex
 10
421.926529
 20
617.134941
 30
0.0
  0
VERTEX
  5
59E
100
AcDbEntity
  8
LAYER_1
 62
     7
100
AcDbVertex
100
AcDb2dVertex
 10
425.101529
 20
617.134941
 30
0.0
  0
SEQEND
  5
59F
100
AcDbEntity
  8
LAYER_1
 62
     7
  0
POLYLINE
  5
594
100
AcDbEntity
  8
LAYER_1
 62
     7
100
AcDb2dPolyline
 66
     1
 10
0.0
 20
0.0
 30
0.0
 70
     1
  0
VERTEX
  5
595
100
AcDbEntity
  8
LAYER_1
 62
     7
100
AcDbVertex
100
AcDb2dVertex
 10
421.926529
 20
555.375575
 30
0.0
  0
VERTEX
  5
596
100
AcDbEntity
  8
LAYER_1
 62
     7
100
AcDbVertex
100
AcDb2dVertex
 10
418.751529
 20
555.375575
 30
0.0
  0
VERTEX
  5
597
100
AcDbEntity
  8
LAYER_1
 62
     7
100
AcDbVertex
100
AcDb2dVertex
 10
418.751529
 20
595.743998
 30
0.0
  0
VERTEX
  5
598
100
AcDbEntity
  8
LAYER_1
 62
     7
100
AcDbVertex
100
AcDb2dVertex
 10
421.926529
 20
595.743998
 30
0.0
  0
SEQEND
  5
599
100
AcDbEntity
  8
LAYER_1
 62
     7
  0
POLYLINE
  5
58E
100
AcDbEntity
  8
LAYER_1
 62
     7
100
AcDb2dPolyline
 66
     1
 10
0.0
 20
0.0
 30
0.0
 70
     1
  0
VERTEX
  5
58F
100
AcDbEntity
  8
LAYER_1
 62
     7
100
AcDbVertex
100
AcDb2dVertex
 10
428.276529
 20
555.375575
 30
0.0
  0
VERTEX
  5
590
100
AcDbEntity
  8
LAYER_1
 62
     7
100
AcDbVertex
100
AcDb2dVertex
 10
425.101529
 20
555.375575
 30
0.0
  0
VERTEX
  5
591
100
AcDbEntity
  8
LAYER_1
 62
     7
100
AcDbVertex
100
AcDb2dVertex
 10
425.101529
 20
595.743998
 30
0.0
  0
VERTEX
  5
592
100
AcDbEntity
  8
LAYER_1
 62
     7
100
AcDbVertex
100
AcDb2dVertex
 10
428.276529
 20
595.743998
 30
0.0
  0
SEQEND
  5
593
100
AcDbEntity
  8
LAYER_1
 62
     7
  0
POLYLINE
  5
588
100
AcDbEntity
  8
LAYER_1
 62
     7
100
AcDb2dPolyline
 66
     1
 10
0.0
 20
0.0
 30
0.0
 70
     1
  0
VERTEX
  5
589
100
AcDbEntity
  8
LAYER_1
 62
     7
100
AcDbVertex
100
AcDb2dVertex
 10
421.926529
 20
617.134941
 30
0.0
  0
VERTEX
  5
58A
100
AcDbEntity
  8
LAYER_1
 62
     7
100
AcDbVertex
100
AcDb2dVertex
 10
418.751529
 20
617.134941
 30
0.0
  0
VERTEX
  5
58B
100
AcDbEntity
  8
LAYER_1
 62
     7
100
AcDbVertex
100
AcDb2dVertex
 10
418.751529
 20
635.225998
 30
0.0
  0
VERTEX
  5
58C
100
AcDbEntity
  8
LAYER_1
 62
     7
100
AcDbVertex
100
AcDb2dVertex
 10
421.926529
 20
635.225998
 30
0.0
  0
SEQEND
  5
58D
100
AcDbEntity
  8
LAYER_1
 62
     7
  0
POLYLINE
  5
582
100
AcDbEntity
  8
LAYER_1
 62
     7
100
AcDb2dPolyline
 66
     1
 10
0.0
 20
0.0
 30
0.0
 70
     1
  0
VERTEX
  5
583
100
AcDbEntity
  8
LAYER_1
 62
     7
100
AcDbVertex
100
AcDb2dVertex
 10
428.276529
 20
617.134941
 30
0.0
  0
VERTEX
  5
584
100
AcDbEntity
  8
LAYER_1
 62
     7
100
AcDbVertex
100
AcDb2dVertex
 10
425.101529
 20
617.134941
 30
0.0
  0
VERTEX
  5
585
100
AcDbEntity
  8
LAYER_1
 62
     7
100
AcDbVertex
100
AcDb2dVertex
 10
425.101529
 20
635.225998
 30
0.0
  0
VERTEX
  5
586
100
AcDbEntity
  8
LAYER_1
 62
     7
100
AcDbVertex
100
AcDb2dVertex
 10
428.276529
 20
635.225998
 30
0.0
  0
SEQEND
  5
587
100
AcDbEntity
  8
LAYER_1
 62
     7
  0
INSERT
  5
572
100
AcDbEntity
  8
LAYER_1
 62
     7
100
AcDbBlockReference
  2
AI9-BLK59
 10
420.084867
 20
617.134941
 30
0.0
  0
INSERT
  5
561
100
AcDbEntity
  8
LAYER_1
 62
     7
100
AcDbBlockReference
  2
AI9-BLK58
 10
420.084867
 20
595.763463
 30
0.0
  0
INSERT
  5
550
100
AcDbEntity
  8
LAYER_1
 62
     7
100
AcDbBlockReference
  2
AI9-BLK57
 10
420.084867
 20
555.375575
 30
0.0
  0
POLYLINE
  5
549
100
AcDbEntity
  8
LAYER_1
 62
     7
100
AcDb2dPolyline
 66
     1
 10
0.0
 20
0.0
 30
0.0
 70
     1
  0
VERTEX
  5
54A
100
AcDbEntity
  8
LAYER_1
 62
     7
100
AcDbVertex
100
AcDb2dVertex
 10
471.272871
 20
588.657609
 30
0.0
  0
VERTEX
  5
54B
100
AcDbEntity
  8
LAYER_1
 62
     7
100
AcDbVertex
100
AcDb2dVertex
 10
468.097871
 20
588.657609
 30
0.0
  0
VERTEX
  5
54C
100
AcDbEntity
  8
LAYER_1
 62
     7
100
AcDbVertex
100
AcDb2dVertex
 10
468.097871
 20
614.829827
 30
0.0
  0
VERTEX
  5
54D
100
AcDbEntity
  8
LAYER_1
 62
     7
100
AcDbVertex
100
AcDb2dVertex
 10
471.272871
 20
614.829827
 30
0.0
  0
SEQEND
  5
54E
100
AcDbEntity
  8
LAYER_1
 62
     7
  0
POLYLINE
  5
543
100
AcDbEntity
  8
LAYER_1
 62
     7
100
AcDb2dPolyline
 66
     1
 10
0.0
 20
0.0
 30
0.0
 70
     1
  0
VERTEX
  5
544
100
AcDbEntity
  8
LAYER_1
 62
     7
100
AcDbVertex
100
AcDb2dVertex
 10
468.097871
 20
549.869968
 30
0.0
  0
VERTEX
  5
545
100
AcDbEntity
  8
LAYER_1
 62
     7
100
AcDbVertex
100
AcDb2dVertex
 10
464.922871
 20
549.869968
 30
0.0
  0
VERTEX
  5
546
100
AcDbEntity
  8
LAYER_1
 62
     7
100
AcDbVertex
100
AcDb2dVertex
 10
464.922871
 20
588.657609
 30
0.0
  0
VERTEX
  5
547
100
AcDbEntity
  8
LAYER_1
 62
     7
100
AcDbVertex
100
AcDb2dVertex
 10
468.097871
 20
588.657609
 30
0.0
  0
SEQEND
  5
548
100
AcDbEntity
  8
LAYER_1
 62
     7
  0
POLYLINE
  5
53D
100
AcDbEntity
  8
LAYER_1
 62
     7
100
AcDb2dPolyline
 66
     1
 10
0.0
 20
0.0
 30
0.0
 70
     1
  0
VERTEX
  5
53E
100
AcDbEntity
  8
LAYER_1
 62
     7
100
AcDbVertex
100
AcDb2dVertex
 10
474.448215
 20
549.869968
 30
0.0
  0
VERTEX
  5
53F
100
AcDbEntity
  8
LAYER_1
 62
     7
100
AcDbVertex
100
AcDb2dVertex
 10
471.272871
 20
549.869968
 30
0.0
  0
VERTEX
  5
540
100
AcDbEntity
  8
LAYER_1
 62
     7
100
AcDbVertex
100
AcDb2dVertex
 10
471.272871
 20
588.657609
 30
0.0
  0
VERTEX
  5
541
100
AcDbEntity
  8
LAYER_1
 62
     7
100
AcDbVertex
100
AcDb2dVertex
 10
474.448215
 20
588.657609
 30
0.0
  0
SEQEND
  5
542
100
AcDbEntity
  8
LAYER_1
 62
     7
  0
POLYLINE
  5
537
100
AcDbEntity
  8
LAYER_1
 62
     7
100
AcDb2dPolyline
 66
     1
 10
0.0
 20
0.0
 30
0.0
 70
     1
  0
VERTEX
  5
538
100
AcDbEntity
  8
LAYER_1
 62
     7
100
AcDbVertex
100
AcDb2dVertex
 10
468.097871
 20
614.829827
 30
0.0
  0
VERTEX
  5
539
100
AcDbEntity
  8
LAYER_1
 62
     7
100
AcDbVertex
100
AcDb2dVertex
 10
464.922871
 20
614.829827
 30
0.0
  0
VERTEX
  5
53A
100
AcDbEntity
  8
LAYER_1
 62
     7
100
AcDbVertex
100
AcDb2dVertex
 10
464.922871
 20
634.815343
 30
0.0
  0
VERTEX
  5
53B
100
AcDbEntity
  8
LAYER_1
 62
     7
100
AcDbVertex
100
AcDb2dVertex
 10
468.097871
 20
634.815343
 30
0.0
  0
SEQEND
  5
53C
100
AcDbEntity
  8
LAYER_1
 62
     7
  0
POLYLINE
  5
531
100
AcDbEntity
  8
LAYER_1
 62
     7
100
AcDb2dPolyline
 66
     1
 10
0.0
 20
0.0
 30
0.0
 70
     1
  0
VERTEX
  5
532
100
AcDbEntity
  8
LAYER_1
 62
     7
100
AcDbVertex
100
AcDb2dVertex
 10
474.448215
 20
614.829827
 30
0.0
  0
VERTEX
  5
533
100
AcDbEntity
  8
LAYER_1
 62
     7
100
AcDbVertex
100
AcDb2dVertex
 10
471.272871
 20
614.829827
 30
0.0
  0
VERTEX
  5
534
100
AcDbEntity
  8
LAYER_1
 62
     7
100
AcDbVertex
100
AcDb2dVertex
 10
471.272871
 20
634.815343
 30
0.0
  0
VERTEX
  5
535
100
AcDbEntity
  8
LAYER_1
 62
     7
100
AcDbVertex
100
AcDb2dVertex
 10
474.448215
 20
634.815343
 30
0.0
  0
SEQEND
  5
536
100
AcDbEntity
  8
LAYER_1
 62
     7
  0
INSERT
  5
521
100
AcDbEntity
  8
LAYER_1
 62
     7
100
AcDbBlockReference
  2
AI9-BLK56
 10
466.256381
 20
614.829827
 30
0.0
  0
INSERT
  5
510
100
AcDbEntity
  8
LAYER_1
 62
     7
100
AcDbBlockReference
  2
AI9-BLK55
 10
466.256381
 20
588.657609
 30
0.0
  0
INSERT
  5
4FF
100
AcDbEntity
  8
LAYER_1
 62
     7
100
AcDbBlockReference
  2
AI9-BLK54
 10
466.256381
 20
549.869968
 30
0.0
  0
POLYLINE
  5
4F8
100
AcDbEntity
  8
LAYER_1
 62
     7
100
AcDb2dPolyline
 66
     1
 10
0.0
 20
0.0
 30
0.0
 70
     1
  0
VERTEX
  5
4F9
100
AcDbEntity
  8
LAYER_1
 62
     7
100
AcDbVertex
100
AcDb2dVertex
 10
493.232598
 20
571.031467
 30
0.0
  0
VERTEX
  5
4FA
100
AcDbEntity
  8
LAYER_1
 62
     7
100
AcDbVertex
100
AcDb2dVertex
 10
490.057598
 20
571.031467
 30
0.0
  0
VERTEX
  5
4FB
100
AcDbEntity
  8
LAYER_1
 62
     7
100
AcDbVertex
100
AcDb2dVertex
 10
490.057598
 20
587.769636
 30
0.0
  0
VERTEX
  5
4FC
100
AcDbEntity
  8
LAYER_1
 62
     7
100
AcDbVertex
100
AcDb2dVertex
 10
493.232598
 20
587.769636
 30
0.0
  0
SEQEND
  5
4FD
100
AcDbEntity
  8
LAYER_1
 62
     7
  0
POLYLINE
  5
4F2
100
AcDbEntity
  8
LAYER_1
 62
     7
100
AcDb2dPolyline
 66
     1
 10
0.0
 20
0.0
 30
0.0
 70
     1
  0
VERTEX
  5
4F3
100
AcDbEntity
  8
LAYER_1
 62
     7
100
AcDbVertex
100
AcDb2dVertex
 10
490.057598
 20
537.211998
 30
0.0
  0
VERTEX
  5
4F4
100
AcDbEntity
  8
LAYER_1
 62
     7
100
AcDbVertex
100
AcDb2dVertex
 10
486.882254
 20
537.211998
 30
0.0
  0
VERTEX
  5
4F5
100
AcDbEntity
  8
LAYER_1
 62
     7
100
AcDbVertex
100
AcDb2dVertex
 10
486.882254
 20
571.031467
 30
0.0
  0
VERTEX
  5
4F6
100
AcDbEntity
  8
LAYER_1
 62
     7
100
AcDbVertex
100
AcDb2dVertex
 10
490.057598
 20
571.031467
 30
0.0
  0
SEQEND
  5
4F7
100
AcDbEntity
  8
LAYER_1
 62
     7
  0
POLYLINE
  5
4EC
100
AcDbEntity
  8
LAYER_1
 62
     7
100
AcDb2dPolyline
 66
     1
 10
0.0
 20
0.0
 30
0.0
 70
     1
  0
VERTEX
  5
4ED
100
AcDbEntity
  8
LAYER_1
 62
     7
100
AcDbVertex
100
AcDb2dVertex
 10
496.407598
 20
537.211998
 30
0.0
  0
VERTEX
  5
4EE
100
AcDbEntity
  8
LAYER_1
 62
     7
100
AcDbVertex
100
AcDb2dVertex
 10
493.232598
 20
537.211998
 30
0.0
  0
VERTEX
  5
4EF
100
AcDbEntity
  8
LAYER_1
 62
     7
100
AcDbVertex
100
AcDb2dVertex
 10
493.232598
 20
571.031467
 30
0.0
  0
VERTEX
  5
4F0
100
AcDbEntity
  8
LAYER_1
 62
     7
100
AcDbVertex
100
AcDb2dVertex
 10
496.407598
 20
571.031467
 30
0.0
  0
SEQEND
  5
4F1
100
AcDbEntity
  8
LAYER_1
 62
     7
  0
POLYLINE
  5
4E6
100
AcDbEntity
  8
LAYER_1
 62
     7
100
AcDb2dPolyline
 66
     1
 10
0.0
 20
0.0
 30
0.0
 70
     1
  0
VERTEX
  5
4E7
100
AcDbEntity
  8
LAYER_1
 62
     7
100
AcDbVertex
100
AcDb2dVertex
 10
490.057598
 20
587.882463
 30
0.0
  0
VERTEX
  5
4E8
100
AcDbEntity
  8
LAYER_1
 62
     7
100
AcDbVertex
100
AcDb2dVertex
 10
486.882254
 20
587.882463
 30
0.0
  0
VERTEX
  5
4E9
100
AcDbEntity
  8
LAYER_1
 62
     7
100
AcDbVertex
100
AcDb2dVertex
 10
486.882254
 20
604.999075
 30
0.0
  0
VERTEX
  5
4EA
100
AcDbEntity
  8
LAYER_1
 62
     7
100
AcDbVertex
100
AcDb2dVertex
 10
490.057598
 20
604.999075
 30
0.0
  0
SEQEND
  5
4EB
100
AcDbEntity
  8
LAYER_1
 62
     7
  0
POLYLINE
  5
4E0
100
AcDbEntity
  8
LAYER_1
 62
     7
100
AcDb2dPolyline
 66
     1
 10
0.0
 20
0.0
 30
0.0
 70
     1
  0
VERTEX
  5
4E1
100
AcDbEntity
  8
LAYER_1
 62
     7
100
AcDbVertex
100
AcDb2dVertex
 10
496.407598
 20
587.882463
 30
0.0
  0
VERTEX
  5
4E2
100
AcDbEntity
  8
LAYER_1
 62
     7
100
AcDbVertex
100
AcDb2dVertex
 10
493.232598
 20
587.882463
 30
0.0
  0
VERTEX
  5
4E3
100
AcDbEntity
  8
LAYER_1
 62
     7
100
AcDbVertex
100
AcDb2dVertex
 10
493.232598
 20
604.999075
 30
0.0
  0
VERTEX
  5
4E4
100
AcDbEntity
  8
LAYER_1
 62
     7
100
AcDbVertex
100
AcDb2dVertex
 10
496.407598
 20
604.999075
 30
0.0
  0
SEQEND
  5
4E5
100
AcDbEntity
  8
LAYER_1
 62
     7
  0
INSERT
  5
4D0
100
AcDbEntity
  8
LAYER_1
 62
     7
100
AcDbBlockReference
  2
AI9-BLK53
 10
488.21585
 20
587.769636
 30
0.0
  0
INSERT
  5
4BF
100
AcDbEntity
  8
LAYER_1
 62
     7
100
AcDbBlockReference
  2
AI9-BLK52
 10
488.21585
 20
571.198899
 30
0.0
  0
INSERT
  5
4AE
100
AcDbEntity
  8
LAYER_1
 62
     7
100
AcDbBlockReference
  2
AI9-BLK51
 10
488.21585
 20
537.211998
 30
0.0
  0
MTEXT
  5
4AC
100
AcDbEntity
  8
LAYER_1
 62
     7
100
AcDbMText
 10
859.531687
 20
612.632152
 30
0.0
 40
3.149802
 41
0.0
 71
     1
 72
     2
  1
\fMyriad Roman|b0|i0;Pinky
  7
STD
210
0.0
220
0.0
230
1.0
 11
1.000001
 21
0.0
 31
0.0
 73
     1
 44
1.0
  0
MTEXT
  5
4AB
100
AcDbEntity
  8
LAYER_1
 62
     7
100
AcDbMText
 10
808.548063
 20
612.632152
 30
0.0
 40
3.149802
 41
0.0
 71
     1
 72
     2
  1
\fMyriad Roman|b0|i0;Ring
  7
STD
210
0.0
220
0.0
230
1.0
 11
1.000001
 21
0.0
 31
0.0
 73
     1
 44
1.0
  0
MTEXT
  5
4AA
100
AcDbEntity
  8
LAYER_1
 62
     7
100
AcDbMText
 10
765.172933
 20
614.219652
 30
0.0
 40
3.149802
 41
0.0
 71
     1
 72
     2
  1
\fMyriad Roman|b0|i0;Middle
  7
STD
210
0.0
220
0.0
230
1.0
 11
1.000001
 21
0.0
 31
0.0
 73
     1
 44
1.0
  0
MTEXT
  5
4A9
100
AcDbEntity
  8
LAYER_1
 62
     7
100
AcDbMText
 10
716.848923
 20
614.219652
 30
0.0
 40
3.149802
 41
0.0
 71
     1
 72
     2
  1
\fMyriad Roman|b0|i0;Index
  7
STD
210
0.0
220
0.0
230
1.0
 11
1.000001
 21
0.0
 31
0.0
 73
     1
 44
1.0
  0
MTEXT
  5
4A8
100
AcDbEntity
  8
LAYER_1
 62
     7
100
AcDbMText
 10
661.743587
 20
614.219652
 30
0.0
 40
3.149802
 41
0.0
 71
     1
 72
     2
  1
\fMyriad Roman|b0|i0;Thumb
  7
STD
210
0.0
220
0.0
230
1.0
 11
1.000001
 21
0.0
 31
0.0
 73
     1
 44
1.0
  0
POLYLINE
  5
4A2
100
AcDbEntity
  8
LAYER_1
 62
     7
100
AcDb2dPolyline
 66
     1
 10
0.0
 20
0.0
 30
0.0
 70
     1
  0
VERTEX
  5
4A3
100
AcDbEntity
  8
LAYER_1
 62
     7
100
AcDbVertex
100
AcDb2dVertex
 10
399.75665
 20
515.417118
 30
0.0
  0
VERTEX
  5
4A4
100
AcDbEntity
  8
LAYER_1
 62
     7
100
AcDbVertex
100
AcDb2dVertex
 10
390.616467
 20
510.980869
 30
0.0
  0
VERTEX
  5
4A5
100
AcDbEntity
  8
LAYER_1
 62
     7
100
AcDbVertex
100
AcDb2dVertex
 10
376.387189
 20
540.297942
 30
0.0
  0
VERTEX
  5
4A6
100
AcDbEntity
  8
LAYER_1
 62
     7
100
AcDbVertex
100
AcDb2dVertex
 10
385.5272
 20
544.734192
 30
0.0
  0
SEQEND
  5
4A7
100
AcDbEntity
  8
LAYER_1
 62
     7
  0
POLYLINE
  5
49C
100
AcDbEntity
  8
LAYER_1
 62
     7
100
AcDb2dPolyline
 66
     1
 10
0.0
 20
0.0
 30
0.0
 70
     1
  0
VERTEX
  5
49D
100
AcDbEntity
  8
LAYER_1
 62
     7
100
AcDbVertex
100
AcDb2dVertex
 10
424.668136
 20
490.281013
 30
0.0
  0
VERTEX
  5
49E
100
AcDbEntity
  8
LAYER_1
 62
     7
100
AcDbVertex
100
AcDb2dVertex
 10
417.399501
 20
483.182393
 30
0.0
  0
VERTEX
  5
49F
100
AcDbEntity
  8
LAYER_1
 62
     7
100
AcDbVertex
100
AcDb2dVertex
 10
391.552327
 20
509.649684
 30
0.0
  0
VERTEX
  5
4A0
100
AcDbEntity
  8
LAYER_1
 62
     7
100
AcDbVertex
100
AcDb2dVertex
 10
398.820962
 20
516.748303
 30
0.0
  0
SEQEND
  5
4A1
100
AcDbEntity
  8
LAYER_1
 62
     7
  0
CIRCLE
  5
49B
100
AcDbEntity
  8
LAYER_1
 62
     7
100
AcDbCircle
 10
380.956936
 20
542.515895
 30
0.0
 40
5.080024
  0
CIRCLE
  5
49A
100
AcDbEntity
  8
LAYER_1
 62
     7
100
AcDbCircle
 10
380.957109
 20
542.516153
 30
0.0
 40
1.587525
  0
CIRCLE
  5
499
100
AcDbEntity
  8
LAYER_1
 62
     7
100
AcDbCircle
 10
395.186473
 20
513.198821
 30
0.0
 40
1.587503
  0
CIRCLE
  5
498
100
AcDbEntity
  8
LAYER_1
 62
     7
100
AcDbCircle
 10
421.033904
 20
486.731703
 30
0.0
 40
1.587331
  0
CIRCLE
  5
497
100
AcDbEntity
  8
LAYER_1
 62
     7
100
AcDbCircle
 10
395.186559
 20
513.198994
 30
0.0
 40
5.079942
  0
CIRCLE
  5
496
100
AcDbEntity
  8
LAYER_1
 62
     7
100
AcDbCircle
 10
421.033818
 20
486.731703
 30
0.0
 40
5.079947
  0
SPLINE
  5
495
100
AcDbEntity
  8
LAYER_1
 62
     7
100
AcDbSpline
210
0.0
220
0.0
230
1.0
 70
     8
 71
     3
 72
    20
 73
    16
 74
     0
 42
0.00000001
 43
0.00000001
 40
0.0
 40
0.0
 40
0.0
 40
0.0
 40
1.0
 40
1.0
 40
1.0
 40
2.0
 40
2.0
 40
2.0
 40
3.0
 40
3.0
 40
3.0
 40
4.0
 40
4.0
 40
4.0
 40
5.0
 40
5.0
 40
5.0
 40
5.0
 10
379.27693549262148
 20
559.54999728732639
 30
0.0
 10
376.48503011067703
 20
559.27456190321175
 30
0.0
 10
374.44518907335066
 20
556.7877197265625
 30
0.0
 10
374.72027994791665
 20
553.995814344618
 30
0.0
 10
374.72027994791665
 20
553.995814344618
 30
0.0
 10
375.90143093532981
 20
542.01738959418401
 30
0.0
 10
375.90143093532981
 20
542.01738959418401
 30
0.0
 10
375.90143093532981
 20
542.01738959418401
 30
0.0
 10
386.0124416775173
 20
543.01440022786448
 30
0.0
 10
386.0124416775173
 20
543.01440022786448
 30
0.0
 10
386.0124416775173
 20
543.01440022786448
 30
0.0
 10
384.83111843532981
 20
554.99299723307286
 30
0.0
 10
384.83111843532981
 20
554.99299723307286
 30
0.0
 10
384.55602756076388
 20
557.78490261501736
 30
0.0
 10
382.06901312934025
 20
559.82526041666665
 30
0.0
 10
379.27693549262148
 20
559.54999728732639
 30
0.0
  0
CIRCLE
  5
494
100
AcDbEntity
  8
LAYER_1
 62
     7
100
AcDbCircle
 10
652.289728
 20
587.683422
 30
0.0
 40
1.587698
  0
SPLINE
  5
493
100
AcDbEntity
  8
LAYER_1
 62
     7
100
AcDbSpline
210
0.0
220
0.0
230
1.0
 70
     8
 71
     3
 72
    23
 73
    19
 74
     0
 42
0.00000001
 43
0.00000001
 40
0.0
 40
0.0
 40
0.0
 40
0.0
 40
1.0
 40
1.0
 40
1.0
 40
2.0
 40
2.0
 40
2.0
 40
3.0
 40
3.0
 40
3.0
 40
4.0
 40
4.0
 40
4.0
 40
5.0
 40
5.0
 40
5.0
 40
6.0
 40
6.0
 40
6.0
 40
6.0
 10
657.30182562934021
 20
599.74874945746524
 30
0.0
 10
657.28563368055552
 20
602.55409071180554
 30
0.0
 10
654.99843478732635
 20
604.81562364366312
 30
0.0
 10
652.19274902343739
 20
604.79977620442708
 30
0.0
 10
649.38740776909719
 20
604.78392876519092
 30
0.0
 10
647.12570258246524
 20
602.49655761718748
 30
0.0
 10
647.14189453124993
 20
599.6910441080729
 30
0.0
 10
647.14189453124993
 20
599.6910441080729
 30
0.0
 10
647.20976291232637
 20
587.65456949869781
 30
0.0
 10
647.20976291232637
 20
587.65456949869781
 30
0.0
 10
647.22561035156241
 20
584.84888373480896
 30
0.0
 10
649.51315375434024
 20
582.58752305772566
 30
0.0
 10
652.31849500868054
 20
582.60354275173609
 30
0.0
 10
655.12383626302073
 20
582.61956244574651
 30
0.0
 10
657.38588595920135
 20
584.9065890842013
 30
0.0
 10
657.36969401041665
 20
587.71210259331588
 30
0.0
 10
657.36969401041665
 20
587.71210259331588
 30
0.0
 10
657.30182562934021
 20
599.74874945746524
 30
0.0
 10
657.30182562934021
 20
599.74874945746524
 30
0.0
  0
CIRCLE
  5
492
100
AcDbEntity
  8
LAYER_1
 62
     7
100
AcDbCircle
 10
668.756251
 20
587.683422
 30
0.0
 40
1.587698
  0
CIRCLE
  5
491
100
AcDbEntity
  8
LAYER_1
 62
     7
100
AcDbCircle
 10
668.940736
 20
555.096006
 30
0.0
 40
1.587525
  0
SPLINE
  5
490
100
AcDbEntity
  8
LAYER_1
 62
     7
100
AcDbSpline
210
0.0
220
0.0
230
1.0
 70
     8
 71
     3
 72
    23
 73
    19
 74
     0
 42
0.00000001
 43
0.00000001
 40
0.0
 40
0.0
 40
0.0
 40
0.0
 40
1.0
 40
1.0
 40
1.0
 40
2.0
 40
2.0
 40
2.0
 40
3.0
 40
3.0
 40
3.0
 40
4.0
 40
4.0
 40
4.0
 40
5.0
 40
5.0
 40
5.0
 40
6.0
 40
6.0
 40
6.0
 40
6.0
 10
673.83621690538189
 20
587.71210259331588
 30
0.0
 10
673.82036946614573
 20
590.51778835720484
 30
0.0
 10
671.53317057291656
 20
592.77914903428814
 30
0.0
 10
668.72748480902771
 20
592.76330159505198
 30
0.0
 10
665.92214355468741
 20
592.74728190104156
 30
0.0
 10
663.66043836805545
 20
590.4600830078125
 30
0.0
 10
663.67628580729161
 20
587.65456949869781
 30
0.0
 10
663.67628580729161
 20
587.65456949869781
 30
0.0
 10
663.86094292534722
 20
555.06723904079854
 30
0.0
 10
663.86094292534722
 20
555.06723904079854
 30
0.0
 10
663.87679036458326
 20
552.26155327690969
 30
0.0
 10
666.16398925781243
 20
550.00036485460066
 30
0.0
 10
668.96933051215274
 20
550.0162122938367
 30
0.0
 10
671.77501627604158
 20
550.03188747829859
 30
0.0
 10
674.03637695312489
 20
552.31908637152776
 30
0.0
 10
674.02087402343739
 20
555.12494439019088
 30
0.0
 10
674.02087402343739
 20
555.12494439019088
 30
0.0
 10
673.83621690538189
 20
587.71210259331588
 30
0.0
 10
673.83621690538189
 20
587.71210259331588
 30
0.0
  0
CIRCLE
  5
48F
100
AcDbEntity
  8
LAYER_1
 62
     7
100
AcDbCircle
 10
682.603468
 20
555.096006
 30
0.0
 40
1.587698
  0
CIRCLE
  5
48E
100
AcDbEntity
  8
LAYER_1
 62
     7
100
AcDbCircle
 10
682.81293
 20
518.102053
 30
0.0
 40
1.587354
  0
SPLINE
  5
48D
100
AcDbEntity
  8
LAYER_1
 62
     7
100
AcDbSpline
210
0.0
220
0.0
230
1.0
 70
     8
 71
     3
 72
    23
 73
    19
 74
     0
 42
0.00000001
 43
0.00000001
 40
0.0
 40
0.0
 40
0.0
 40
0.0
 40
1.0
 40
1.0
 40
1.0
 40
2.0
 40
2.0
 40
2.0
 40
3.0
 40
3.0
 40
3.0
 40
4.0
 40
4.0
 40
4.0
 40
5.0
 40
5.0
 40
5.0
 40
6.0
 40
6.0
 40
6.0
 40
6.0
 10
687.68377821180547
 20
555.12494439019088
 30
0.0
 10
687.66793077256943
 20
557.93028564453118
 30
0.0
 10
685.38038736979161
 20
560.19181857638887
 30
0.0
 10
682.57470160590276
 20
560.17597113715271
 30
0.0
 10
679.76936035156245
 20
560.15995144314229
 30
0.0
 10
677.5076551649305
 20
557.87275254991312
 30
0.0
 10
677.52384711371519
 20
555.06723904079854
 30
0.0
 10
677.52384711371519
 20
555.06723904079854
 30
0.0
 10
677.73296440972217
 20
518.07363145616318
 30
0.0
 10
677.73296440972217
 20
518.07363145616318
 30
0.0
 10
677.74915635850687
 20
515.26777343749995
 30
0.0
 10
680.03635525173604
 20
513.00624050564227
 30
0.0
 10
682.84204101562489
 20
513.02208794487842
 30
0.0
 10
685.64738226996519
 20
513.03793538411458
 30
0.0
 10
687.90908745659715
 20
515.32530653211802
 30
0.0
 10
687.89289550781245
 20
518.13099229600687
 30
0.0
 10
687.89289550781245
 20
518.13099229600687
 30
0.0
 10
687.68377821180547
 20
555.12494439019088
 30
0.0
 10
687.68377821180547
 20
555.12494439019088
 30
0.0
  0
CIRCLE
  5
48C
100
AcDbEntity
  8
LAYER_1
 62
     7
100
AcDbCircle
 10
759.546748
 20
586.95866
 30
0.0
 40
1.5875
  0
CIRCLE
  5
48B
100
AcDbEntity
  8
LAYER_1
 62
     7
100
AcDbCircle
 10
798.082208
 20
580.620374
 30
0.0
 40
1.5875
  0
CIRCLE
  5
48A
100
AcDbEntity
  8
LAYER_1
 62
     7
100
AcDbCircle
 10
847.515194
 20
587.769636
 30
0.0
 40
1.5875
  0
SPLINE
  5
489
100
AcDbEntity
  8
LAYER_1
 62
     7
100
AcDbSpline
210
0.0
220
0.0
230
1.0
 70
     8
 71
     3
 72
    23
 73
    19
 74
     0
 42
0.00000001
 43
0.00000001
 40
0.0
 40
0.0
 40
0.0
 40
0.0
 40
1.0
 40
1.0
 40
1.0
 40
2.0
 40
2.0
 40
2.0
 40
3.0
 40
3.0
 40
3.0
 40
4.0
 40
4.0
 40
4.0
 40
5.0
 40
5.0
 40
5.0
 40
6.0
 40
6.0
 40
6.0
 40
6.0
 10
847.51519368489573
 20
604.88624810112844
 30
0.0
 10
844.70985243055543
 20
604.88624810112844
 30
0.0
 10
842.43540039062498
 20
602.61196831597215
 30
0.0
 10
842.43540039062498
 20
599.8062825520833
 30
0.0
 10
842.43540039062498
 20
599.8062825520833
 30
0.0
 10
842.43540039062498
 20
587.76963568793394
 30
0.0
 10
842.43540039062498
 20
587.76963568793394
 30
0.0
 10
842.43540039062498
 20
584.9639499240451
 30
0.0
 10
844.70985243055543
 20
582.6896701388888
 30
0.0
 10
847.51519368489573
 20
582.6896701388888
 30
0.0
 10
850.32087944878469
 20
582.6896701388888
 30
0.0
 10
852.59533148871515
 20
584.9639499240451
 30
0.0
 10
852.59533148871515
 20
587.76963568793394
 30
0.0
 10
852.59533148871515
 20
587.76963568793394
 30
0.0
 10
852.59533148871515
 20
599.8062825520833
 30
0.0
 10
852.59533148871515
 20
599.8062825520833
 30
0.0
 10
852.59533148871515
 20
602.61196831597215
 30
0.0
 10
850.32087944878469
 20
604.88624810112844
 30
0.0
 10
847.51519368489573
 20
604.88624810112844
 30
0.0
  0
CIRCLE
  5
488
100
AcDbEntity
  8
LAYER_1
 62
     7
100
AcDbCircle
 10
860.215194
 20
587.769636
 30
0.0
 40
1.5875
  0
SPLINE
  5
487
100
AcDbEntity
  8
LAYER_1
 62
     7
100
AcDbSpline
210
0.0
220
0.0
230
1.0
 70
     8
 71
     3
 72
    23
 73
    19
 74
     0
 42
0.00000001
 43
0.00000001
 40
0.0
 40
0.0
 40
0.0
 40
0.0
 40
1.0
 40
1.0
 40
1.0
 40
2.0
 40
2.0
 40
2.0
 40
3.0
 40
3.0
 40
3.0
 40
4.0
 40
4.0
 40
4.0
 40
5.0
 40
5.0
 40
5.0
 40
6.0
 40
6.0
 40
6.0
 40
6.0
 10
860.21519368489578
 20
592.84960123697908
 30
0.0
 10
857.40985243055547
 20
592.84960123697908
 30
0.0
 10
855.13540039062491
 20
590.57514919704852
 30
0.0
 10
855.13540039062491
 20
587.76963568793394
 30
0.0
 10
855.13540039062491
 20
587.76963568793394
 30
0.0
 10
855.13540039062491
 20
571.0314670138888
 30
0.0
 10
855.13540039062491
 20
571.0314670138888
 30
0.0
 10
855.13540039062491
 20
568.22578124999995
 30
0.0
 10
857.40985243055547
 20
565.95150146484366
 30
0.0
 10
860.21519368489578
 20
565.95150146484366
 30
0.0
 10
863.02087944878463
 20
565.95150146484366
 30
0.0
 10
865.29533148871519
 20
568.22578124999995
 30
0.0
 10
865.29533148871519
 20
571.0314670138888
 30
0.0
 10
865.29533148871519
 20
571.0314670138888
 30
0.0
 10
865.29533148871519
 20
587.76963568793394
 30
0.0
 10
865.29533148871519
 20
587.76963568793394
 30
0.0
 10
865.29533148871519
 20
590.57514919704852
 30
0.0
 10
863.02087944878463
 20
592.84960123697908
 30
0.0
 10
860.21519368489578
 20
592.84960123697908
 30
0.0
  0
CIRCLE
  5
486
100
AcDbEntity
  8
LAYER_1
 62
     7
100
AcDbCircle
 10
860.215194
 20
571.031467
 30
0.0
 40
1.5875
  0
CIRCLE
  5
485
100
AcDbEntity
  8
LAYER_1
 62
     7
100
AcDbCircle
 10
873.267971
 20
571.031467
 30
0.0
 40
1.5875
  0
SPLINE
  5
484
100
AcDbEntity
  8
LAYER_1
 62
     7
100
AcDbSpline
210
0.0
220
0.0
230
1.0
 70
     8
 71
     3
 72
    23
 73
    19
 74
     0
 42
0.00000001
 43
0.00000001
 40
0.0
 40
0.0
 40
0.0
 40
0.0
 40
1.0
 40
1.0
 40
1.0
 40
2.0
 40
2.0
 40
2.0
 40
3.0
 40
3.0
 40
3.0
 40
4.0
 40
4.0
 40
4.0
 40
5.0
 40
5.0
 40
5.0
 40
6.0
 40
6.0
 40
6.0
 40
6.0
 10
873.26797146267359
 20
576.11143256293394
 30
0.0
 10
870.46263020833328
 20
576.11143256293394
 30
0.0
 10
868.18817816840271
 20
573.83698052300338
 30
0.0
 10
868.18817816840271
 20
571.0314670138888
 30
0.0
 10
868.18817816840271
 20
571.0314670138888
 30
0.0
 10
868.18817816840271
 20
537.21199815538193
 30
0.0
 10
868.18817816840271
 20
537.21199815538193
 30
0.0
 10
868.18817816840271
 20
534.40631239149297
 30
0.0
 10
870.46263020833328
 20
532.13203260633679
 30
0.0
 10
873.26797146267359
 20
532.13203260633679
 30
0.0
 10
876.07365722656243
 20
532.13203260633679
 30
0.0
 10
878.348109266493
 20
534.40631239149297
 30
0.0
 10
878.348109266493
 20
537.21199815538193
 30
0.0
 10
878.348109266493
 20
537.21199815538193
 30
0.0
 10
878.348109266493
 20
571.0314670138888
 30
0.0
 10
878.348109266493
 20
571.0314670138888
 30
0.0
 10
878.348109266493
 20
573.83698052300338
 30
0.0
 10
876.07365722656243
 20
576.11143256293394
 30
0.0
 10
873.26797146267359
 20
576.11143256293394
 30
0.0
  0
CIRCLE
  5
483
100
AcDbEntity
  8
LAYER_1
 62
     7
100
AcDbCircle
 10
873.267971
 20
537.211998
 30
0.0
 40
1.5875
  0
POLYLINE
  5
47D
100
AcDbEntity
  8
LAYER_1
 62
     7
100
AcDb2dPolyline
 66
     1
 10
0.0
 20
0.0
 30
0.0
 70
     1
  0
VERTEX
  5
47E
100
AcDbEntity
  8
LAYER_1
 62
     7
100
AcDbVertex
100
AcDb2dVertex
 10
425.101529
 20
549.025575
 30
0.0
  0
VERTEX
  5
47F
100
AcDbEntity
  8
LAYER_1
 62
     7
100
AcDbVertex
100
AcDb2dVertex
 10
421.926529
 20
549.025575
 30
0.0
  0
VERTEX
  5
480
100
AcDbEntity
  8
LAYER_1
 62
     7
100
AcDbVertex
100
AcDb2dVertex
 10
421.926529
 20
561.725575
 30
0.0
  0
VERTEX
  5
481
100
AcDbEntity
  8
LAYER_1
 62
     7
100
AcDbVertex
100
AcDb2dVertex
 10
425.101529
 20
561.725575
 30
0.0
  0
SEQEND
  5
482
100
AcDbEntity
  8
LAYER_1
 62
     7
  0
POLYLINE
  5
477
100
AcDbEntity
  8
LAYER_1
 62
     7
100
AcDb2dPolyline
 66
     1
 10
0.0
 20
0.0
 30
0.0
 70
     1
  0
VERTEX
  5
478
100
AcDbEntity
  8
LAYER_1
 62
     7
100
AcDbVertex
100
AcDb2dVertex
 10
450.099658
 20
551.946672
 30
0.0
  0
VERTEX
  5
479
100
AcDbEntity
  8
LAYER_1
 62
     7
100
AcDbVertex
100
AcDb2dVertex
 10
446.924658
 20
551.946672
 30
0.0
  0
VERTEX
  5
47A
100
AcDbEntity
  8
LAYER_1
 62
     7
100
AcDbVertex
100
AcDb2dVertex
 10
446.924658
 20
564.646672
 30
0.0
  0
VERTEX
  5
47B
100
AcDbEntity
  8
LAYER_1
 62
     7
100
AcDbVertex
100
AcDb2dVertex
 10
450.099658
 20
564.646672
 30
0.0
  0
SEQEND
  5
47C
100
AcDbEntity
  8
LAYER_1
 62
     7
  0
SPLINE
  5
476
100
AcDbEntity
  8
LAYER_1
 62
     7
100
AcDbSpline
210
0.0
220
0.0
230
1.0
 70
     8
 71
     3
 72
    23
 73
    19
 74
     0
 42
0.00000001
 43
0.00000001
 40
0.0
 40
0.0
 40
0.0
 40
0.0
 40
1.0
 40
1.0
 40
1.0
 40
2.0
 40
2.0
 40
2.0
 40
3.0
 40
3.0
 40
3.0
 40
4.0
 40
4.0
 40
4.0
 40
5.0
 40
5.0
 40
5.0
 40
6.0
 40
6.0
 40
6.0
 40
6.0
 10
759.54674750434026
 20
605.95508897569437
 30
0.0
 10
756.7410617404513
 20
605.95508897569437
 30
0.0
 10
754.46660970052073
 20
603.68080919053818
 30
0.0
 10
754.46660970052073
 20
600.87512342664922
 30
0.0
 10
754.46660970052073
 20
600.87512342664922
 30
0.0
 10
754.46660970052073
 20
586.95866021050347
 30
0.0
 10
754.46660970052073
 20
586.95866021050347
 30
0.0
 10
754.46660970052073
 20
584.15297444661451
 30
0.0
 10
756.7410617404513
 20
581.87869466145833
 30
0.0
 10
759.54674750434026
 20
581.87869466145833
 30
0.0
 10
762.35243326822911
 20
581.87869466145833
 30
0.0
 10
764.62688530815967
 20
584.15297444661451
 30
0.0
 10
764.62688530815967
 20
586.95866021050347
 30
0.0
 10
764.62688530815967
 20
586.95866021050347
 30
0.0
 10
764.62688530815967
 20
600.87512342664922
 30
0.0
 10
764.62688530815967
 20
600.87512342664922
 30
0.0
 10
764.62688530815967
 20
603.68080919053818
 30
0.0
 10
762.35243326822911
 20
605.95508897569437
 30
0.0
 10
759.54674750434026
 20
605.95508897569437
 30
0.0
  0
CIRCLE
  5
475
100
AcDbEntity
  8
LAYER_1
 62
     7
100
AcDbCircle
 10
772.585056
 20
586.95866
 30
0.0
 40
1.5875
  0
SPLINE
  5
474
100
AcDbEntity
  8
LAYER_1
 62
     7
100
AcDbSpline
210
0.0
220
0.0
230
1.0
 70
     8
 71
     3
 72
    35
 73
    31
 74
     0
 42
0.00000001
 43
0.00000001
 40
0.0
 40
0.0
 40
0.0
 40
0.0
 40
1.0
 40
1.0
 40
1.0
 40
2.0
 40
2.0
 40
2.0
 40
3.0
 40
3.0
 40
3.0
 40
4.0
 40
4.0
 40
4.0
 40
5.0
 40
5.0
 40
5.0
 40
6.0
 40
6.0
 40
6.0
 40
7.0
 40
7.0
 40
7.0
 40
8.0
 40
8.0
 40
8.0
 40
9.0
 40
9.0
 40
9.0
 40
10.0
 40
10.0
 40
10.0
 40
10.0
 10
777.66519368489571
 20
586.95866021050347
 30
0.0
 10
777.66519368489571
 20
589.76417371961804
 30
0.0
 10
775.39074164496526
 20
592.03862575954861
 30
0.0
 10
772.5850558810763
 20
592.03862575954861
 30
0.0
 10
769.77937011718745
 20
592.03862575954861
 30
0.0
 10
767.50491807725689
 20
589.76417371961804
 30
0.0
 10
767.50491807725689
 20
586.95866021050347
 30
0.0
 10
767.50491807725689
 20
586.95866021050347
 30
0.0
 10
767.50491807725689
 20
559.21461724175344
 30
0.0
 10
767.50491807725689
 20
559.21461724175344
 30
0.0
 10
767.50491807725689
 20
559.21461724175344
 30
0.0
 10
767.50629611545128
 20
559.21461724175344
 30
0.0
 10
767.50629611545128
 20
559.21461724175344
 30
0.0
 10
767.50629611545128
 20
559.20514322916665
 30
0.0
 10
767.50491807725689
 20
559.19584147135413
 30
0.0
 10
767.50491807725689
 20
559.18619520399295
 30
0.0
 10
767.50491807725689
 20
556.38050944010411
 30
0.0
 10
769.77937011718745
 20
554.10622965494781
 30
0.0
 10
772.5850558810763
 20
554.10622965494781
 30
0.0
 10
775.39074164496526
 20
554.10622965494781
 30
0.0
 10
777.66519368489571
 20
556.38050944010411
 30
0.0
 10
777.66519368489571
 20
559.18619520399295
 30
0.0
 10
777.66519368489571
 20
559.19584147135413
 30
0.0
 10
777.66381564670132
 20
559.20514322916665
 30
0.0
 10
777.66381564670132
 20
559.21461724175344
 30
0.0
 10
777.66381564670132
 20
559.21461724175344
 30
0.0
 10
777.66519368489571
 20
559.21461724175344
 30
0.0
 10
777.66519368489571
 20
559.21461724175344
 30
0.0
 10
777.66519368489571
 20
559.21461724175344
 30
0.0
 10
777.66519368489571
 20
586.95866021050347
 30
0.0
 10
777.66519368489571
 20
586.95866021050347
 30
0.0
  0
CIRCLE
  5
473
100
AcDbEntity
  8
LAYER_1
 62
     7
100
AcDbCircle
 10
772.585056
 20
559.186195
 30
0.0
 40
1.5875
  0
CIRCLE
  5
472
100
AcDbEntity
  8
LAYER_1
 62
     7
100
AcDbCircle
 10
787.225334
 20
559.186195
 30
0.0
 40
1.5875
  0
SPLINE
  5
471
100
AcDbEntity
  8
LAYER_1
 62
     7
100
AcDbSpline
210
0.0
220
0.0
230
1.0
 70
     8
 71
     3
 72
    23
 73
    19
 74
     0
 42
0.00000001
 43
0.00000001
 40
0.0
 40
0.0
 40
0.0
 40
0.0
 40
1.0
 40
1.0
 40
1.0
 40
2.0
 40
2.0
 40
2.0
 40
3.0
 40
3.0
 40
3.0
 40
4.0
 40
4.0
 40
4.0
 40
5.0
 40
5.0
 40
5.0
 40
6.0
 40
6.0
 40
6.0
 40
6.0
 10
787.22533365885408
 20
564.26616075303809
 30
0.0
 10
784.41964789496524
 20
564.26616075303809
 30
0.0
 10
782.14519585503467
 20
561.99170871310764
 30
0.0
 10
782.14519585503467
 20
559.18619520399295
 30
0.0
 10
782.14519585503467
 20
559.18619520399295
 30
0.0
 10
782.14519585503467
 20
517.19806043836797
 30
0.0
 10
782.14519585503467
 20
517.19806043836797
 30
0.0
 10
782.14519585503467
 20
514.39237467447913
 30
0.0
 10
784.41964789496524
 20
512.11809488932283
 30
0.0
 10
787.22533365885408
 20
512.11809488932283
 30
0.0
 10
790.03101942274293
 20
512.11809488932283
 30
0.0
 10
792.30547146267349
 20
514.39237467447913
 30
0.0
 10
792.30547146267349
 20
517.19806043836797
 30
0.0
 10
792.30547146267349
 20
517.19806043836797
 30
0.0
 10
792.30547146267349
 20
559.18619520399295
 30
0.0
 10
792.30547146267349
 20
559.18619520399295
 30
0.0
 10
792.30547146267349
 20
561.99170871310764
 30
0.0
 10
790.03101942274293
 20
564.26616075303809
 30
0.0
 10
787.22533365885408
 20
564.26616075303809
 30
0.0
  0
CIRCLE
  5
470
100
AcDbEntity
  8
LAYER_1
 62
     7
100
AcDbCircle
 10
787.225334
 20
517.19806
 30
0.0
 40
1.5875
  0
CIRCLE
  5
46F
100
AcDbEntity
  8
LAYER_1
 62
     7
100
AcDbCircle
 10
707.440712
 20
585.370988
 30
0.0
 40
1.5875
  0
SPLINE
  5
46E
100
AcDbEntity
  8
LAYER_1
 62
     7
100
AcDbSpline
210
0.0
220
0.0
230
1.0
 70
     8
 71
     3
 72
    23
 73
    19
 74
     0
 42
0.00000001
 43
0.00000001
 40
0.0
 40
0.0
 40
0.0
 40
0.0
 40
1.0
 40
1.0
 40
1.0
 40
2.0
 40
2.0
 40
2.0
 40
3.0
 40
3.0
 40
3.0
 40
4.0
 40
4.0
 40
4.0
 40
5.0
 40
5.0
 40
5.0
 40
6.0
 40
6.0
 40
6.0
 40
6.0
 10
707.44071180555545
 20
603.46204562717003
 30
0.0
 10
704.63502604166661
 20
603.46204562717003
 30
0.0
 10
702.36057400173604
 20
601.18776584201385
 30
0.0
 10
702.36057400173604
 20
598.382080078125
 30
0.0
 10
702.36057400173604
 20
598.382080078125
 30
0.0
 10
702.36057400173604
 20
585.37098795572911
 30
0.0
 10
702.36057400173604
 20
585.37098795572911
 30
0.0
 10
702.36057400173604
 20
582.56530219184026
 30
0.0
 10
704.63502604166661
 20
580.29102240668396
 30
0.0
 10
707.44071180555545
 20
580.29102240668396
 30
0.0
 10
710.24639756944441
 20
580.29102240668396
 30
0.0
 10
712.52084960937498
 20
582.56530219184026
 30
0.0
 10
712.52084960937498
 20
585.37098795572911
 30
0.0
 10
712.52084960937498
 20
585.37098795572911
 30
0.0
 10
712.52084960937498
 20
598.382080078125
 30
0.0
 10
712.52084960937498
 20
598.382080078125
 30
0.0
 10
712.52084960937498
 20
601.18776584201385
 30
0.0
 10
710.24639756944441
 20
603.46204562717003
 30
0.0
 10
707.44071180555545
 20
603.46204562717003
 30
0.0
  0
CIRCLE
  5
46D
100
AcDbEntity
  8
LAYER_1
 62
     7
100
AcDbCircle
 10
722.006231
 20
585.483987
 30
0.0
 40
1.5875
  0
SPLINE
  5
46C
100
AcDbEntity
  8
LAYER_1
 62
     7
100
AcDbSpline
210
0.0
220
0.0
230
1.0
 70
     8
 71
     3
 72
    35
 73
    31
 74
     0
 42
0.00000001
 43
0.00000001
 40
0.0
 40
0.0
 40
0.0
 40
0.0
 40
1.0
 40
1.0
 40
1.0
 40
2.0
 40
2.0
 40
2.0
 40
3.0
 40
3.0
 40
3.0
 40
4.0
 40
4.0
 40
4.0
 40
5.0
 40
5.0
 40
5.0
 40
6.0
 40
6.0
 40
6.0
 40
7.0
 40
7.0
 40
7.0
 40
8.0
 40
8.0
 40
8.0
 40
9.0
 40
9.0
 40
9.0
 40
10.0
 40
10.0
 40
10.0
 40
10.0
 10
727.08636881510415
 20
585.48398708767354
 30
0.0
 10
727.08636881510415
 20
588.28950059678812
 30
0.0
 10
724.81191677517359
 20
590.56395263671868
 30
0.0
 10
722.00623101128463
 20
590.56395263671868
 30
0.0
 10
719.20054524739578
 20
590.56395263671868
 30
0.0
 10
716.92609320746521
 20
588.28950059678812
 30
0.0
 10
716.92609320746521
 20
585.48398708767354
 30
0.0
 10
716.92609320746521
 20
585.48398708767354
 30
0.0
 10
716.92609320746521
 20
564.14093153211797
 30
0.0
 10
716.92609320746521
 20
564.14093153211797
 30
0.0
 10
716.92609320746521
 20
564.14093153211797
 30
0.0
 10
716.9274712456596
 20
564.14093153211797
 30
0.0
 10
716.9274712456596
 20
564.14093153211797
 30
0.0
 10
716.9274712456596
 20
564.13145751953118
 30
0.0
 10
716.92609320746521
 20
564.12215576171866
 30
0.0
 10
716.92609320746521
 20
564.1125094943576
 30
0.0
 10
716.92609320746521
 20
561.30682373046875
 30
0.0
 10
719.20054524739578
 20
559.03254394531245
 30
0.0
 10
722.00623101128463
 20
559.03254394531245
 30
0.0
 10
724.81191677517359
 20
559.03254394531245
 30
0.0
 10
727.08636881510415
 20
561.30682373046875
 30
0.0
 10
727.08636881510415
 20
564.1125094943576
 30
0.0
 10
727.08636881510415
 20
564.12215576171866
 30
0.0
 10
727.08499077690965
 20
564.13145751953118
 30
0.0
 10
727.08499077690965
 20
564.14093153211797
 30
0.0
 10
727.08499077690965
 20
564.14093153211797
 30
0.0
 10
727.08636881510415
 20
564.14093153211797
 30
0.0
 10
727.08636881510415
 20
564.14093153211797
 30
0.0
 10
727.08636881510415
 20
564.14093153211797
 30
0.0
 10
727.08636881510415
 20
585.48398708767354
 30
0.0
 10
727.08636881510415
 20
585.48398708767354
 30
0.0
  0
CIRCLE
  5
46B
100
AcDbEntity
  8
LAYER_1
 62
     7
100
AcDbCircle
 10
722.006231
 20
564.112509
 30
0.0
 40
1.5875
  0
CIRCLE
  5
46A
100
AcDbEntity
  8
LAYER_1
 62
     7
100
AcDbCircle
 10
735.622282
 20
564.112509
 30
0.0
 40
1.5875
  0
SPLINE
  5
469
100
AcDbEntity
  8
LAYER_1
 62
     7
100
AcDbSpline
210
0.0
220
0.0
230
1.0
 70
     8
 71
     3
 72
    23
 73
    19
 74
     0
 42
0.00000001
 43
0.00000001
 40
0.0
 40
0.0
 40
0.0
 40
0.0
 40
1.0
 40
1.0
 40
1.0
 40
2.0
 40
2.0
 40
2.0
 40
3.0
 40
3.0
 40
3.0
 40
4.0
 40
4.0
 40
4.0
 40
5.0
 40
5.0
 40
5.0
 40
6.0
 40
6.0
 40
6.0
 40
6.0
 10
735.62228190104156
 20
569.19247504340274
 30
0.0
 10
732.81659613715271
 20
569.19247504340274
 30
0.0
 10
730.54214409722215
 20
566.91802300347217
 30
0.0
 10
730.54214409722215
 20
564.1125094943576
 30
0.0
 10
730.54214409722215
 20
564.1125094943576
 30
0.0
 10
730.54214409722215
 20
523.7246215820312
 30
0.0
 10
730.54214409722215
 20
523.7246215820312
 30
0.0
 10
730.54214409722215
 20
520.91893581814236
 30
0.0
 10
732.81659613715271
 20
518.64465603298606
 30
0.0
 10
735.62228190104156
 20
518.64465603298606
 30
0.0
 10
738.42796766493052
 20
518.64465603298606
 30
0.0
 10
740.70241970486109
 20
520.91893581814236
 30
0.0
 10
740.70241970486109
 20
523.7246215820312
 30
0.0
 10
740.70241970486109
 20
523.7246215820312
 30
0.0
 10
740.70241970486109
 20
564.1125094943576
 30
0.0
 10
740.70241970486109
 20
564.1125094943576
 30
0.0
 10
740.70241970486109
 20
566.91802300347217
 30
0.0
 10
738.42796766493052
 20
569.19247504340274
 30
0.0
 10
735.62228190104156
 20
569.19247504340274
 30
0.0
  0
CIRCLE
  5
468
100
AcDbEntity
  8
LAYER_1
 62
     7
100
AcDbCircle
 10
735.622282
 20
523.724622
 30
0.0
 40
1.5875
  0
POLYLINE
  5
462
100
AcDbEntity
  8
LAYER_1
 62
     7
100
AcDb2dPolyline
 66
     1
 10
0.0
 20
0.0
 30
0.0
 70
     1
  0
VERTEX
  5
463
100
AcDbEntity
  8
LAYER_1
 62
     7
100
AcDbVertex
100
AcDb2dVertex
 10
612.519374
 20
582.701211
 30
0.0
  0
VERTEX
  5
464
100
AcDbEntity
  8
LAYER_1
 62
     7
100
AcDbVertex
100
AcDb2dVertex
 10
602.359098
 20
582.701211
 30
0.0
  0
VERTEX
  5
465
100
AcDbEntity
  8
LAYER_1
 62
     7
100
AcDbVertex
100
AcDb2dVertex
 10
602.359098
 20
600.792269
 30
0.0
  0
VERTEX
  5
466
100
AcDbEntity
  8
LAYER_1
 62
     7
100
AcDbVertex
100
AcDb2dVertex
 10
612.519374
 20
600.792269
 30
0.0
  0
SEQEND
  5
467
100
AcDbEntity
  8
LAYER_1
 62
     7
  0
POLYLINE
  5
45C
100
AcDbEntity
  8
LAYER_1
 62
     7
100
AcDb2dPolyline
 66
     1
 10
0.0
 20
0.0
 30
0.0
 70
     1
  0
VERTEX
  5
45D
100
AcDbEntity
  8
LAYER_1
 62
     7
100
AcDbVertex
100
AcDb2dVertex
 10
612.519374
 20
561.358156
 30
0.0
  0
VERTEX
  5
45E
100
AcDbEntity
  8
LAYER_1
 62
     7
100
AcDbVertex
100
AcDb2dVertex
 10
602.359098
 20
561.358156
 30
0.0
  0
VERTEX
  5
45F
100
AcDbEntity
  8
LAYER_1
 62
     7
100
AcDbVertex
100
AcDb2dVertex
 10
602.359098
 20
582.701211
 30
0.0
  0
VERTEX
  5
460
100
AcDbEntity
  8
LAYER_1
 62
     7
100
AcDbVertex
100
AcDb2dVertex
 10
612.519374
 20
582.701211
 30
0.0
  0
SEQEND
  5
461
100
AcDbEntity
  8
LAYER_1
 62
     7
  0
POLYLINE
  5
456
100
AcDbEntity
  8
LAYER_1
 62
     7
100
AcDb2dPolyline
 66
     1
 10
0.0
 20
0.0
 30
0.0
 70
     1
  0
VERTEX
  5
457
100
AcDbEntity
  8
LAYER_1
 62
     7
100
AcDbVertex
100
AcDb2dVertex
 10
612.519374
 20
520.941846
 30
0.0
  0
VERTEX
  5
458
100
AcDbEntity
  8
LAYER_1
 62
     7
100
AcDbVertex
100
AcDb2dVertex
 10
602.359098
 20
520.941846
 30
0.0
  0
VERTEX
  5
459
100
AcDbEntity
  8
LAYER_1
 62
     7
100
AcDbVertex
100
AcDb2dVertex
 10
602.359098
 20
561.329734
 30
0.0
  0
VERTEX
  5
45A
100
AcDbEntity
  8
LAYER_1
 62
     7
100
AcDbVertex
100
AcDb2dVertex
 10
612.519374
 20
561.329734
 30
0.0
  0
SEQEND
  5
45B
100
AcDbEntity
  8
LAYER_1
 62
     7
  0
CIRCLE
  5
455
100
AcDbEntity
  8
LAYER_1
 62
     7
100
AcDbCircle
 10
607.439236
 20
582.701211
 30
0.0
 40
5.080138
  0
CIRCLE
  5
454
100
AcDbEntity
  8
LAYER_1
 62
     7
100
AcDbCircle
 10
607.439236
 20
582.701211
 30
0.0
 40
1.5875
  0
CIRCLE
  5
453
100
AcDbEntity
  8
LAYER_1
 62
     7
100
AcDbCircle
 10
607.439236
 20
561.329734
 30
0.0
 40
5.080138
  0
CIRCLE
  5
452
100
AcDbEntity
  8
LAYER_1
 62
     7
100
AcDbCircle
 10
607.439236
 20
561.329734
 30
0.0
 40
1.5875
  0
CIRCLE
  5
451
100
AcDbEntity
  8
LAYER_1
 62
     7
100
AcDbCircle
 10
607.439236
 20
520.941846
 30
0.0
 40
5.080138
  0
CIRCLE
  5
450
100
AcDbEntity
  8
LAYER_1
 62
     7
100
AcDbCircle
 10
607.439236
 20
520.941846
 30
0.0
 40
1.5875
  0
SPLINE
  5
44F
100
AcDbEntity
  8
LAYER_1
 62
     7
100
AcDbSpline
210
0.0
220
0.0
230
1.0
 70
     8
 71
     3
 72
    20
 73
    16
 74
     0
 42
0.00000001
 43
0.00000001
 40
0.0
 40
0.0
 40
0.0
 40
0.0
 40
1.0
 40
1.0
 40
1.0
 40
2.0
 40
2.0
 40
2.0
 40
3.0
 40
3.0
 40
3.0
 40
4.0
 40
4.0
 40
4.0
 40
5.0
 40
5.0
 40
5.0
 40
5.0
 10
607.43923611111109
 20
600.79226888020833
 30
0.0
 10
604.63355034722213
 20
600.79226888020833
 30
0.0
 10
602.35909830729156
 20
598.51798909505203
 30
0.0
 10
602.35909830729156
 20
595.71230333116318
 30
0.0
 10
602.35909830729156
 20
595.71230333116318
 30
0.0
 10
602.35909830729156
 20
583.67565646701382
 30
0.0
 10
602.35909830729156
 20
583.67565646701382
 30
0.0
 10
602.35909830729156
 20
583.67565646701382
 30
0.0
 10
612.5193739149305
 20
583.67565646701382
 30
0.0
 10
612.5193739149305
 20
583.67565646701382
 30
0.0
 10
612.5193739149305
 20
583.67565646701382
 30
0.0
 10
612.5193739149305
 20
595.71230333116318
 30
0.0
 10
612.5193739149305
 20
595.71230333116318
 30
0.0
 10
612.5193739149305
 20
598.51798909505203
 30
0.0
 10
610.24492187499993
 20
600.79226888020833
 30
0.0
 10
607.43923611111109
 20
600.79226888020833
 30
0.0
  0
POLYLINE
  5
449
100
AcDbEntity
  8
LAYER_1
 62
     7
100
AcDb2dPolyline
 66
     1
 10
0.0
 20
0.0
 30
0.0
 70
     1
  0
VERTEX
  5
44A
100
AcDbEntity
  8
LAYER_1
 62
     7
100
AcDbVertex
100
AcDb2dVertex
 10
471.272871
 20
543.519968
 30
0.0
  0
VERTEX
  5
44B
100
AcDbEntity
  8
LAYER_1
 62
     7
100
AcDbVertex
100
AcDb2dVertex
 10
468.097871
 20
543.519968
 30
0.0
  0
VERTEX
  5
44C
100
AcDbEntity
  8
LAYER_1
 62
     7
100
AcDbVertex
100
AcDb2dVertex
 10
468.097871
 20
556.219968
 30
0.0
  0
VERTEX
  5
44D
100
AcDbEntity
  8
LAYER_1
 62
     7
100
AcDbVertex
100
AcDb2dVertex
 10
471.272871
 20
556.219968
 30
0.0
  0
SEQEND
  5
44E
100
AcDbEntity
  8
LAYER_1
 62
     7
  0
SPLINE
  5
448
100
AcDbEntity
  8
LAYER_1
 62
     7
100
AcDbSpline
210
0.0
220
0.0
230
1.0
 70
     8
 71
     3
 72
    23
 73
    19
 74
     0
 42
0.00000001
 43
0.00000001
 40
0.0
 40
0.0
 40
0.0
 40
0.0
 40
1.0
 40
1.0
 40
1.0
 40
2.0
 40
2.0
 40
2.0
 40
3.0
 40
3.0
 40
3.0
 40
4.0
 40
4.0
 40
4.0
 40
5.0
 40
5.0
 40
5.0
 40
6.0
 40
6.0
 40
6.0
 40
6.0
 10
798.08220757378467
 20
600.60588921440967
 30
0.0
 10
795.27652180989571
 20
600.60588921440967
 30
0.0
 10
793.00206976996526
 20
598.33160942925338
 30
0.0
 10
793.00206976996526
 20
595.52592366536453
 30
0.0
 10
793.00206976996526
 20
595.52592366536453
 30
0.0
 10
793.00206976996526
 20
580.6203735351562
 30
0.0
 10
793.00206976996526
 20
580.6203735351562
 30
0.0
 10
793.00206976996526
 20
577.81468777126736
 30
0.0
 10
795.27652180989571
 20
575.54040798611106
 30
0.0
 10
798.08220757378467
 20
575.54040798611106
 30
0.0
 10
800.88789333767352
 20
575.54040798611106
 30
0.0
 10
803.16234537760408
 20
577.81468777126736
 30
0.0
 10
803.16234537760408
 20
580.6203735351562
 30
0.0
 10
803.16234537760408
 20
580.6203735351562
 30
0.0
 10
803.16234537760408
 20
595.52592366536453
 30
0.0
 10
803.16234537760408
 20
595.52592366536453
 30
0.0
 10
803.16234537760408
 20
598.33160942925338
 30
0.0
 10
800.88789333767352
 20
600.60588921440967
 30
0.0
 10
798.08220757378467
 20
600.60588921440967
 30
0.0
  0
CIRCLE
  5
447
100
AcDbEntity
  8
LAYER_1
 62
     7
100
AcDbCircle
 10
812.888883
 20
587.313161
 30
0.0
 40
1.5875
  0
SPLINE
  5
446
100
AcDbEntity
  8
LAYER_1
 62
     7
100
AcDbSpline
210
0.0
220
0.0
230
1.0
 70
     8
 71
     3
 72
    23
 73
    19
 74
     0
 42
0.00000001
 43
0.00000001
 40
0.0
 40
0.0
 40
0.0
 40
0.0
 40
1.0
 40
1.0
 40
1.0
 40
2.0
 40
2.0
 40
2.0
 40
3.0
 40
3.0
 40
3.0
 40
4.0
 40
4.0
 40
4.0
 40
5.0
 40
5.0
 40
5.0
 40
6.0
 40
6.0
 40
6.0
 40
6.0
 10
812.88888346354156
 20
592.39312608506941
 30
0.0
 10
810.08319769965271
 20
592.39312608506941
 30
0.0
 10
807.80874565972215
 20
590.11867404513885
 30
0.0
 10
807.80874565972215
 20
587.31316053602427
 30
0.0
 10
807.80874565972215
 20
587.31316053602427
 30
0.0
 10
807.80874565972215
 20
561.14094238281245
 30
0.0
 10
807.80874565972215
 20
561.14094238281245
 30
0.0
 10
807.80874565972215
 20
558.33525661892361
 30
0.0
 10
810.08319769965271
 20
556.06097683376731
 30
0.0
 10
812.88888346354156
 20
556.06097683376731
 30
0.0
 10
815.69456922743052
 20
556.06097683376731
 30
0.0
 10
817.96902126736109
 20
558.33525661892361
 30
0.0
 10
817.96902126736109
 20
561.14094238281245
 30
0.0
 10
817.96902126736109
 20
561.14094238281245
 30
0.0
 10
817.96902126736109
 20
587.31316053602427
 30
0.0
 10
817.96902126736109
 20
587.31316053602427
 30
0.0
 10
817.96902126736109
 20
590.11867404513885
 30
0.0
 10
815.69456922743052
 20
592.39312608506941
 30
0.0
 10
812.88888346354156
 20
592.39312608506941
 30
0.0
  0
CIRCLE
  5
445
100
AcDbEntity
  8
LAYER_1
 62
     7
100
AcDbCircle
 10
812.888883
 20
561.140942
 30
0.0
 40
1.5875
  0
CIRCLE
  5
444
100
AcDbEntity
  8
LAYER_1
 62
     7
100
AcDbCircle
 10
828.734945
 20
573.135387
 30
0.0
 40
1.5875
  0
SPLINE
  5
443
100
AcDbEntity
  8
LAYER_1
 62
     7
100
AcDbSpline
210
0.0
220
0.0
230
1.0
 70
     8
 71
     3
 72
    29
 73
    25
 74
     0
 42
0.00000001
 43
0.00000001
 40
0.0
 40
0.0
 40
0.0
 40
0.0
 40
1.0
 40
1.0
 40
1.0
 40
2.0
 40
2.0
 40
2.0
 40
3.0
 40
3.0
 40
3.0
 40
4.0
 40
4.0
 40
4.0
 40
5.0
 40
5.0
 40
5.0
 40
6.0
 40
6.0
 40
6.0
 40
7.0
 40
7.0
 40
7.0
 40
8.0
 40
8.0
 40
8.0
 40
8.0
 10
828.73494466145826
 20
578.21535237630201
 30
0.0
 10
825.92925889756941
 20
578.21535237630201
 30
0.0
 10
823.65480685763885
 20
575.94090033637144
 30
0.0
 10
823.65480685763885
 20
573.13538682725687
 30
0.0
 10
823.65480685763885
 20
573.13538682725687
 30
0.0
 10
823.65480685763885
 20
534.23595241970486
 30
0.0
 10
823.65480685763885
 20
534.23595241970486
 30
0.0
 10
823.65480685763885
 20
534.23595241970486
 30
0.0
 10
823.66031901041663
 20
534.23595241970486
 30
0.0
 10
823.66031901041663
 20
534.23595241970486
 30
0.0
 10
823.72026367187493
 20
531.48245985243045
 30
0.0
 10
825.96681043836793
 20
529.26778021918403
 30
0.0
 10
828.73494466145826
 20
529.26778021918403
 30
0.0
 10
831.50273437499993
 20
529.26778021918403
 30
0.0
 10
833.74928114149293
 20
531.48245985243045
 30
0.0
 10
833.80922580295135
 20
534.23595241970486
 30
0.0
 10
833.80922580295135
 20
534.23595241970486
 30
0.0
 10
833.81508246527767
 20
534.23595241970486
 30
0.0
 10
833.81508246527767
 20
534.23595241970486
 30
0.0
 10
833.81508246527767
 20
534.23595241970486
 30
0.0
 10
833.81508246527767
 20
573.13538682725687
 30
0.0
 10
833.81508246527767
 20
573.13538682725687
 30
0.0
 10
833.81508246527767
 20
575.94090033637144
 30
0.0
 10
831.5406304253471
 20
578.21535237630201
 30
0.0
 10
828.73494466145826
 20
578.21535237630201
 30
0.0
  0
CIRCLE
  5
442
100
AcDbEntity
  8
LAYER_1
 62
     7
100
AcDbCircle
 10
828.734945
 20
534.347746
 30
0.0
 40
1.5875
  0
POLYLINE
  5
43C
100
AcDbEntity
  8
LAYER_1
 62
     7
100
AcDb2dPolyline
 66
     1
 10
0.0
 20
0.0
 30
0.0
 70
     1
  0
VERTEX
  5
43D
100
AcDbEntity
  8
LAYER_1
 62
     7
100
AcDbVertex
100
AcDb2dVertex
 10
493.232598
 20
530.861998
 30
0.0
  0
VERTEX
  5
43E
100
AcDbEntity
  8
LAYER_1
 62
     7
100
AcDbVertex
100
AcDb2dVertex
 10
490.057598
 20
530.861998
 30
0.0
  0
VERTEX
  5
43F
100
AcDbEntity
  8
LAYER_1
 62
     7
100
AcDbVertex
100
AcDb2dVertex
 10
490.057598
 20
543.561998
 30
0.0
  0
VERTEX
  5
440
100
AcDbEntity
  8
LAYER_1
 62
     7
100
AcDbVertex
100
AcDb2dVertex
 10
493.232598
 20
543.561998
 30
0.0
  0
SEQEND
  5
441
100
AcDbEntity
  8
LAYER_1
 62
     7
  0
POLYLINE
  5
436
100
AcDbEntity
  8
LAYER_1
 62
     7
100
AcDb2dPolyline
 66
     1
 10
0.0
 20
0.0
 30
0.0
 70
     1
  0
VERTEX
  5
437
100
AcDbEntity
  8
LAYER_1
 62
     7
100
AcDbVertex
100
AcDb2dVertex
 10
311.174977
 20
620.056037
 30
0.0
  0
VERTEX
  5
438
100
AcDbEntity
  8
LAYER_1
 62
     7
100
AcDbVertex
100
AcDb2dVertex
 10
301.014701
 20
620.056037
 30
0.0
  0
VERTEX
  5
439
100
AcDbEntity
  8
LAYER_1
 62
     7
100
AcDbVertex
100
AcDb2dVertex
 10
301.014701
 20
638.147095
 30
0.0
  0
VERTEX
  5
43A
100
AcDbEntity
  8
LAYER_1
 62
     7
100
AcDbVertex
100
AcDb2dVertex
 10
311.174977
 20
638.147095
 30
0.0
  0
SEQEND
  5
43B
100
AcDbEntity
  8
LAYER_1
 62
     7
  0
POLYLINE
  5
430
100
AcDbEntity
  8
LAYER_1
 62
     7
100
AcDb2dPolyline
 66
     1
 10
0.0
 20
0.0
 30
0.0
 70
     1
  0
VERTEX
  5
431
100
AcDbEntity
  8
LAYER_1
 62
     7
100
AcDbVertex
100
AcDb2dVertex
 10
311.174977
 20
598.712981
 30
0.0
  0
VERTEX
  5
432
100
AcDbEntity
  8
LAYER_1
 62
     7
100
AcDbVertex
100
AcDb2dVertex
 10
301.014701
 20
598.712981
 30
0.0
  0
VERTEX
  5
433
100
AcDbEntity
  8
LAYER_1
 62
     7
100
AcDbVertex
100
AcDb2dVertex
 10
301.014701
 20
620.056037
 30
0.0
  0
VERTEX
  5
434
100
AcDbEntity
  8
LAYER_1
 62
     7
100
AcDbVertex
100
AcDb2dVertex
 10
311.174977
 20
620.056037
 30
0.0
  0
SEQEND
  5
435
100
AcDbEntity
  8
LAYER_1
 62
     7
  0
POLYLINE
  5
42A
100
AcDbEntity
  8
LAYER_1
 62
     7
100
AcDb2dPolyline
 66
     1
 10
0.0
 20
0.0
 30
0.0
 70
     1
  0
VERTEX
  5
42B
100
AcDbEntity
  8
LAYER_1
 62
     7
100
AcDbVertex
100
AcDb2dVertex
 10
311.174977
 20
558.296672
 30
0.0
  0
VERTEX
  5
42C
100
AcDbEntity
  8
LAYER_1
 62
     7
100
AcDbVertex
100
AcDb2dVertex
 10
301.014701
 20
558.296672
 30
0.0
  0
VERTEX
  5
42D
100
AcDbEntity
  8
LAYER_1
 62
     7
100
AcDbVertex
100
AcDb2dVertex
 10
301.014701
 20
598.684559
 30
0.0
  0
VERTEX
  5
42E
100
AcDbEntity
  8
LAYER_1
 62
     7
100
AcDbVertex
100
AcDb2dVertex
 10
311.174977
 20
598.684559
 30
0.0
  0
SEQEND
  5
42F
100
AcDbEntity
  8
LAYER_1
 62
     7
  0
CIRCLE
  5
429
100
AcDbEntity
  8
LAYER_1
 62
     7
100
AcDbCircle
 10
306.094839
 20
620.056037
 30
0.0
 40
5.080138
  0
CIRCLE
  5
428
100
AcDbEntity
  8
LAYER_1
 62
     7
100
AcDbCircle
 10
306.094839
 20
620.056037
 30
0.0
 40
1.5875
  0
CIRCLE
  5
427
100
AcDbEntity
  8
LAYER_1
 62
     7
100
AcDbCircle
 10
306.094839
 20
598.684559
 30
0.0
 40
5.080138
  0
CIRCLE
  5
426
100
AcDbEntity
  8
LAYER_1
 62
     7
100
AcDbCircle
 10
306.094839
 20
598.684559
 30
0.0
 40
1.5875
  0
CIRCLE
  5
425
100
AcDbEntity
  8
LAYER_1
 62
     7
100
AcDbCircle
 10
306.094839
 20
558.296672
 30
0.0
 40
5.080138
  0
CIRCLE
  5
424
100
AcDbEntity
  8
LAYER_1
 62
     7
100
AcDbCircle
 10
306.094839
 20
558.296672
 30
0.0
 40
6.35
  0
CIRCLE
  5
423
100
AcDbEntity
  8
LAYER_1
 62
     7
100
AcDbCircle
 10
306.094839
 20
558.296672
 30
0.0
 40
1.5875
  0
SPLINE
  5
422
100
AcDbEntity
  8
LAYER_1
 62
     7
100
AcDbSpline
210
0.0
220
0.0
230
1.0
 70
     8
 71
     3
 72
    20
 73
    16
 74
     0
 42
0.00000001
 43
0.00000001
 40
0.0
 40
0.0
 40
0.0
 40
0.0
 40
1.0
 40
1.0
 40
1.0
 40
2.0
 40
2.0
 40
2.0
 40
3.0
 40
3.0
 40
3.0
 40
4.0
 40
4.0
 40
4.0
 40
5.0
 40
5.0
 40
5.0
 40
5.0
 10
306.09483913845486
 20
638.14709472656239
 30
0.0
 10
303.28915337456596
 20
638.14709472656239
 30
0.0
 10
301.01470133463539
 20
635.8728149414062
 30
0.0
 10
301.01470133463539
 20
633.06712917751736
 30
0.0
 10
301.01470133463539
 20
633.06712917751736
 30
0.0
 10
301.01470133463539
 20
621.030482313368
 30
0.0
 10
301.01470133463539
 20
621.030482313368
 30
0.0
 10
301.01470133463539
 20
621.030482313368
 30
0.0
 10
311.17497694227427
 20
621.030482313368
 30
0.0
 10
311.17497694227427
 20
621.030482313368
 30
0.0
 10
311.17497694227427
 20
621.030482313368
 30
0.0
 10
311.17497694227427
 20
633.06712917751736
 30
0.0
 10
311.17497694227427
 20
633.06712917751736
 30
0.0
 10
311.17497694227427
 20
635.8728149414062
 30
0.0
 10
308.9005249023437
 20
638.14709472656239
 30
0.0
 10
306.09483913845486
 20
638.14709472656239
 30
0.0
  0
POLYLINE
  5
41C
100
AcDbEntity
  8
LAYER_1
 62
     7
100
AcDb2dPolyline
 66
     1
 10
0.0
 20
0.0
 30
0.0
 70
     1
  0
VERTEX
  5
41D
100
AcDbEntity
  8
LAYER_1
 62
     7
100
AcDbVertex
100
AcDb2dVertex
 10
307.682339
 20
460.907095
 30
0.0
  0
VERTEX
  5
41E
100
AcDbEntity
  8
LAYER_1
 62
     7
100
AcDbVertex
100
AcDb2dVertex
 10
304.507339
 20
460.907095
 30
0.0
  0
VERTEX
  5
41F
100
AcDbEntity
  8
LAYER_1
 62
     7
100
AcDbVertex
100
AcDb2dVertex
 10
304.507339
 20
558.296672
 30
0.0
  0
VERTEX
  5
420
100
AcDbEntity
  8
LAYER_1
 62
     7
100
AcDbVertex
100
AcDb2dVertex
 10
307.682339
 20
558.296672
 30
0.0
  0
SEQEND
  5
421
100
AcDbEntity
  8
LAYER_1
 62
     7
  0
POLYLINE
  5
416
100
AcDbEntity
  8
LAYER_1
 62
     7
100
AcDb2dPolyline
 66
     1
 10
0.0
 20
0.0
 30
0.0
 70
     1
  0
VERTEX
  5
417
100
AcDbEntity
  8
LAYER_1
 62
     7
100
AcDbVertex
100
AcDb2dVertex
 10
481.320492
 20
457.732095
 30
0.0
  0
VERTEX
  5
418
100
AcDbEntity
  8
LAYER_1
 62
     7
100
AcDbVertex
100
AcDb2dVertex
 10
436.870492
 20
457.732095
 30
0.0
  0
VERTEX
  5
419
100
AcDbEntity
  8
LAYER_1
 62
     7
100
AcDbVertex
100
AcDb2dVertex
 10
436.870492
 20
460.907095
 30
0.0
  0
VERTEX
  5
41A
100
AcDbEntity
  8
LAYER_1
 62
     7
100
AcDbVertex
100
AcDb2dVertex
 10
481.320492
 20
460.907095
 30
0.0
  0
SEQEND
  5
41B
100
AcDbEntity
  8
LAYER_1
 62
     7
  0
POLYLINE
  5
410
100
AcDbEntity
  8
LAYER_1
 62
     7
100
AcDb2dPolyline
 66
     1
 10
0.0
 20
0.0
 30
0.0
 70
     1
  0
VERTEX
  5
411
100
AcDbEntity
  8
LAYER_1
 62
     7
100
AcDbVertex
100
AcDb2dVertex
 10
481.323248
 20
470.991234
 30
0.0
  0
VERTEX
  5
412
100
AcDbEntity
  8
LAYER_1
 62
     7
100
AcDbVertex
100
AcDb2dVertex
 10
436.873248
 20
470.991234
 30
0.0
  0
VERTEX
  5
413
100
AcDbEntity
  8
LAYER_1
 62
     7
100
AcDbVertex
100
AcDb2dVertex
 10
436.873248
 20
474.166234
 30
0.0
  0
VERTEX
  5
414
100
AcDbEntity
  8
LAYER_1
 62
     7
100
AcDbVertex
100
AcDb2dVertex
 10
481.323248
 20
474.166234
 30
0.0
  0
SEQEND
  5
415
100
AcDbEntity
  8
LAYER_1
 62
     7
  0
POLYLINE
  5
40A
100
AcDbEntity
  8
LAYER_1
 62
     7
100
AcDb2dPolyline
 66
     1
 10
0.0
 20
0.0
 30
0.0
 70
     1
  0
VERTEX
  5
40B
100
AcDbEntity
  8
LAYER_1
 62
     7
100
AcDbVertex
100
AcDb2dVertex
 10
484.171653
 20
177.273934
 30
0.0
  0
VERTEX
  5
40C
100
AcDbEntity
  8
LAYER_1
 62
     7
100
AcDbVertex
100
AcDb2dVertex
 10
439.721653
 20
177.273934
 30
0.0
  0
VERTEX
  5
40D
100
AcDbEntity
  8
LAYER_1
 62
     7
100
AcDbVertex
100
AcDb2dVertex
 10
439.721653
 20
180.448934
 30
0.0
  0
VERTEX
  5
40E
100
AcDbEntity
  8
LAYER_1
 62
     7
100
AcDbVertex
100
AcDb2dVertex
 10
484.171653
 20
180.448934
 30
0.0
  0
SEQEND
  5
40F
100
AcDbEntity
  8
LAYER_1
 62
     7
  0
POLYLINE
  5
404
100
AcDbEntity
  8
LAYER_1
 62
     7
100
AcDb2dPolyline
 66
     1
 10
0.0
 20
0.0
 30
0.0
 70
     1
  0
VERTEX
  5
405
100
AcDbEntity
  8
LAYER_1
 62
     7
100
AcDbVertex
100
AcDb2dVertex
 10
484.174409
 20
190.533073
 30
0.0
  0
VERTEX
  5
406
100
AcDbEntity
  8
LAYER_1
 62
     7
100
AcDbVertex
100
AcDb2dVertex
 10
439.724409
 20
190.533073
 30
0.0
  0
VERTEX
  5
407
100
AcDbEntity
  8
LAYER_1
 62
     7
100
AcDbVertex
100
AcDb2dVertex
 10
439.724409
 20
193.708073
 30
0.0
  0
VERTEX
  5
408
100
AcDbEntity
  8
LAYER_1
 62
     7
100
AcDbVertex
100
AcDb2dVertex
 10
484.174409
 20
193.708073
 30
0.0
  0
SEQEND
  5
409
100
AcDbEntity
  8
LAYER_1
 62
     7
  0
CIRCLE
  5
403
100
AcDbEntity
  8
LAYER_1
 62
     7
100
AcDbCircle
 10
421.034077
 20
486.731703
 30
0.0
 40
6.35
  0
POLYLINE
  5
3FD
100
AcDbEntity
  8
LAYER_1
 62
     7
100
AcDb2dPolyline
 66
     1
 10
0.0
 20
0.0
 30
0.0
 70
     1
  0
VERTEX
  5
3FE
100
AcDbEntity
  8
LAYER_1
 62
     7
100
AcDbVertex
100
AcDb2dVertex
 10
430.564072
 20
480.381703
 30
0.0
  0
VERTEX
  5
3FF
100
AcDbEntity
  8
LAYER_1
 62
     7
100
AcDbVertex
100
AcDb2dVertex
 10
421.039072
 20
480.381703
 30
0.0
  0
VERTEX
  5
400
100
AcDbEntity
  8
LAYER_1
 62
     7
100
AcDbVertex
100
AcDb2dVertex
 10
421.039072
 20
493.081703
 30
0.0
  0
VERTEX
  5
401
100
AcDbEntity
  8
LAYER_1
 62
     7
100
AcDbVertex
100
AcDb2dVertex
 10
430.564072
 20
493.081703
 30
0.0
  0
SEQEND
  5
402
100
AcDbEntity
  8
LAYER_1
 62
     7
  0
CIRCLE
  5
3FC
100
AcDbEntity
  8
LAYER_1
 62
     7
100
AcDbCircle
 10
286.881886
 20
392.92003
 30
0.0
 40
1.587418
  0
SPLINE
  5
3FB
100
AcDbEntity
  8
LAYER_1
 62
     7
100
AcDbSpline
210
0.0
220
0.0
230
1.0
 70
     8
 71
     3
 72
    32
 73
    28
 74
     0
 42
0.00000001
 43
0.00000001
 40
0.0
 40
0.0
 40
0.0
 40
0.0
 40
1.0
 40
1.0
 40
1.0
 40
2.0
 40
2.0
 40
2.0
 40
3.0
 40
3.0
 40
3.0
 40
4.0
 40
4.0
 40
4.0
 40
5.0
 40
5.0
 40
5.0
 40
6.0
 40
6.0
 40
6.0
 40
7.0
 40
7.0
 40
7.0
 40
8.0
 40
8.0
 40
8.0
 40
9.0
 40
9.0
 40
9.0
 40
9.0
 10
286.88705376519096
 20
399.27003038194442
 30
0.0
 10
286.88705376519096
 20
399.27003038194442
 30
0.0
 10
286.88705376519096
 20
399.26968587239577
 30
0.0
 10
286.88705376519096
 20
399.26968587239577
 30
0.0
 10
286.88533121744791
 20
399.26968587239577
 30
0.0
 10
286.88378092447914
 20
399.27003038194442
 30
0.0
 10
286.8820583767361
 20
399.27003038194442
 30
0.0
 10
283.37512342664928
 20
399.27003038194442
 30
0.0
 10
280.53205837673607
 20
396.42713758680554
 30
0.0
 10
280.53205837673607
 20
392.9200303819444
 30
0.0
 10
280.53205837673607
 20
389.41292317708331
 30
0.0
 10
283.37512342664928
 20
386.57003038194443
 30
0.0
 10
286.8820583767361
 20
386.57003038194443
 30
0.0
 10
286.88378092447914
 20
386.57003038194443
 30
0.0
 10
286.88533121744791
 20
386.57037489149303
 30
0.0
 10
286.88705376519096
 20
386.57037489149303
 30
0.0
 10
286.88705376519096
 20
386.57037489149303
 30
0.0
 10
286.88705376519096
 20
386.57003038194443
 30
0.0
 10
286.88705376519096
 20
386.57003038194443
 30
0.0
 10
286.88705376519096
 20
386.57003038194443
 30
0.0
 10
296.41205376519093
 20
386.57003038194443
 30
0.0
 10
296.41205376519093
 20
386.57003038194443
 30
0.0
 10
296.41205376519093
 20
386.57003038194443
 30
0.0
 10
296.41205376519093
 20
399.27003038194442
 30
0.0
 10
296.41205376519093
 20
399.27003038194442
 30
0.0
 10
296.41205376519093
 20
399.27003038194442
 30
0.0
 10
286.88705376519096
 20
399.27003038194442
 30
0.0
 10
286.88705376519096
 20
399.27003038194442
 30
0.0
  0
CIRCLE
  5
3FA
100
AcDbEntity
  8
LAYER_1
 62
     7
100
AcDbCircle
 10
304.985346
 20
392.92003
 30
0.0
 40
1.587418
  0
SPLINE
  5
3F9
100
AcDbEntity
  8
LAYER_1
 62
     7
100
AcDbSpline
210
0.0
220
0.0
230
1.0
 70
     8
 71
     3
 72
    32
 73
    28
 74
     0
 42
0.00000001
 43
0.00000001
 40
0.0
 40
0.0
 40
0.0
 40
0.0
 40
1.0
 40
1.0
 40
1.0
 40
2.0
 40
2.0
 40
2.0
 40
3.0
 40
3.0
 40
3.0
 40
4.0
 40
4.0
 40
4.0
 40
5.0
 40
5.0
 40
5.0
 40
6.0
 40
6.0
 40
6.0
 40
7.0
 40
7.0
 40
7.0
 40
8.0
 40
8.0
 40
8.0
 40
9.0
 40
9.0
 40
9.0
 40
9.0
 10
304.99051378038189
 20
399.27003038194442
 30
0.0
 10
304.99051378038189
 20
399.27003038194442
 30
0.0
 10
304.99051378038189
 20
399.26968587239577
 30
0.0
 10
304.99051378038189
 20
399.26968587239577
 30
0.0
 10
304.98879123263885
 20
399.26968587239577
 30
0.0
 10
304.98724093967013
 20
399.27003038194442
 30
0.0
 10
304.98551839192703
 20
399.27003038194442
 30
0.0
 10
301.47858344184027
 20
399.27003038194442
 30
0.0
 10
298.63551839192706
 20
396.42713758680554
 30
0.0
 10
298.63551839192706
 20
392.9200303819444
 30
0.0
 10
298.63551839192706
 20
389.41292317708331
 30
0.0
 10
301.47858344184027
 20
386.57003038194443
 30
0.0
 10
304.98551839192703
 20
386.57003038194443
 30
0.0
 10
304.98724093967013
 20
386.57003038194443
 30
0.0
 10
304.98879123263885
 20
386.57037489149303
 30
0.0
 10
304.99051378038189
 20
386.57037489149303
 30
0.0
 10
304.99051378038189
 20
386.57037489149303
 30
0.0
 10
304.99051378038189
 20
386.57003038194443
 30
0.0
 10
304.99051378038189
 20
386.57003038194443
 30
0.0
 10
304.99051378038189
 20
386.57003038194443
 30
0.0
 10
314.51551378038192
 20
386.57003038194443
 30
0.0
 10
314.51551378038192
 20
386.57003038194443
 30
0.0
 10
314.51551378038192
 20
386.57003038194443
 30
0.0
 10
314.51551378038192
 20
399.27003038194442
 30
0.0
 10
314.51551378038192
 20
399.27003038194442
 30
0.0
 10
314.51551378038192
 20
399.27003038194442
 30
0.0
 10
304.99051378038189
 20
399.27003038194442
 30
0.0
 10
304.99051378038189
 20
399.27003038194442
 30
0.0
  0
CIRCLE
  5
3F8
100
AcDbEntity
  8
LAYER_1
 62
     7
100
AcDbCircle
 10
324.597069
 20
392.92003
 30
0.0
 40
1.587418
  0
CIRCLE
  5
3F7
100
AcDbEntity
  8
LAYER_1
 62
     7
100
AcDbCircle
 10
324.597241
 20
392.92003
 30
0.0
 40
6.35
  0
POLYLINE
  5
3F1
100
AcDbEntity
  8
LAYER_1
 62
     7
100
AcDb2dPolyline
 66
     1
 10
0.0
 20
0.0
 30
0.0
 70
     1
  0
VERTEX
  5
3F2
100
AcDbEntity
  8
LAYER_1
 62
     7
100
AcDbVertex
100
AcDb2dVertex
 10
436.914072
 20
476.571772
 30
0.0
  0
VERTEX
  5
3F3
100
AcDbEntity
  8
LAYER_1
 62
     7
100
AcDbVertex
100
AcDb2dVertex
 10
433.739072
 20
476.571772
 30
0.0
  0
VERTEX
  5
3F4
100
AcDbEntity
  8
LAYER_1
 62
     7
100
AcDbVertex
100
AcDb2dVertex
 10
433.739072
 20
496.891634
 30
0.0
  0
VERTEX
  5
3F5
100
AcDbEntity
  8
LAYER_1
 62
     7
100
AcDbVertex
100
AcDb2dVertex
 10
436.914072
 20
496.891634
 30
0.0
  0
SEQEND
  5
3F6
100
AcDbEntity
  8
LAYER_1
 62
     7
  0
POLYLINE
  5
3EB
100
AcDbEntity
  8
LAYER_1
 62
     7
100
AcDb2dPolyline
 66
     1
 10
0.0
 20
0.0
 30
0.0
 70
     1
  0
VERTEX
  5
3EC
100
AcDbEntity
  8
LAYER_1
 62
     7
100
AcDbVertex
100
AcDb2dVertex
 10
433.739072
 20
476.571772
 30
0.0
  0
VERTEX
  5
3ED
100
AcDbEntity
  8
LAYER_1
 62
     7
100
AcDbVertex
100
AcDb2dVertex
 10
430.564072
 20
476.571772
 30
0.0
  0
VERTEX
  5
3EE
100
AcDbEntity
  8
LAYER_1
 62
     7
100
AcDbVertex
100
AcDb2dVertex
 10
430.564072
 20
496.891634
 30
0.0
  0
VERTEX
  5
3EF
100
AcDbEntity
  8
LAYER_1
 62
     7
100
AcDbVertex
100
AcDb2dVertex
 10
433.739072
 20
496.891634
 30
0.0
  0
SEQEND
  5
3F0
100
AcDbEntity
  8
LAYER_1
 62
     7
  0
SPLINE
  5
3EA
100
AcDbEntity
  8
LAYER_1
 62
     7
100
AcDbSpline
210
0.0
220
0.0
230
1.0
 70
     8
 71
     3
 72
    29
 73
    25
 74
     0
 42
0.00000001
 43
0.00000001
 40
0.0
 40
0.0
 40
0.0
 40
0.0
 40
1.0
 40
1.0
 40
1.0
 40
2.0
 40
2.0
 40
2.0
 40
3.0
 40
3.0
 40
3.0
 40
4.0
 40
4.0
 40
4.0
 40
5.0
 40
5.0
 40
5.0
 40
6.0
 40
6.0
 40
6.0
 40
7.0
 40
7.0
 40
7.0
 40
8.0
 40
8.0
 40
8.0
 40
8.0
 10
312.44483913845482
 20
558.29667154947913
 30
0.0
 10
312.44483913845482
 20
561.80360649956594
 30
0.0
 10
309.60177408854162
 20
564.64667154947915
 30
0.0
 10
306.09483913845486
 20
564.64667154947915
 30
0.0
 10
302.58790418836804
 20
564.64667154947915
 30
0.0
 10
299.74483913845484
 20
561.80360649956594
 30
0.0
 10
299.74483913845484
 20
558.29667154947913
 30
0.0
 10
299.74483913845484
 20
546.46104600694434
 30
0.0
 10
301.76866048177078
 20
536.5166056315104
 30
0.0
 10
304.50733913845482
 20
533.69696723090271
 30
0.0
 10
304.50733913845482
 20
533.69696723090271
 30
0.0
 10
304.50733913845482
 20
552.15475531684024
 30
0.0
 10
304.50733913845482
 20
552.15475531684024
 30
0.0
 10
305.01566297743051
 20
552.02366943359368
 30
0.0
 10
305.54569091796873
 20
551.94667154947911
 30
0.0
 10
306.09483913845486
 20
551.94667154947911
 30
0.0
 10
306.64398735894093
 20
551.94667154947911
 30
0.0
 10
307.17401529947915
 20
552.02366943359368
 30
0.0
 10
307.68233913845484
 20
552.15475531684024
 30
0.0
 10
307.68233913845484
 20
552.15475531684024
 30
0.0
 10
307.68233913845484
 20
533.69696723090271
 30
0.0
 10
307.68233913845484
 20
533.69696723090271
 30
0.0
 10
310.42101779513888
 20
536.5166056315104
 30
0.0
 10
312.44483913845482
 20
546.46104600694434
 30
0.0
 10
312.44483913845482
 20
558.29667154947913
 30
0.0
  0
CIRCLE
  5
3E9
100
AcDbEntity
  8
LAYER_1
 62
     7
100
AcDbCircle
 10
336.429938
 20
558.296672
 30
0.0
 40
1.5875
  0
SPLINE
  5
3E8
100
AcDbEntity
  8
LAYER_1
 62
     7
100
AcDbSpline
210
0.0
220
0.0
230
1.0
 70
     8
 71
     3
 72
    29
 73
    25
 74
     0
 42
0.00000001
 43
0.00000001
 40
0.0
 40
0.0
 40
0.0
 40
0.0
 40
1.0
 40
1.0
 40
1.0
 40
2.0
 40
2.0
 40
2.0
 40
3.0
 40
3.0
 40
3.0
 40
4.0
 40
4.0
 40
4.0
 40
5.0
 40
5.0
 40
5.0
 40
6.0
 40
6.0
 40
6.0
 40
7.0
 40
7.0
 40
7.0
 40
8.0
 40
8.0
 40
8.0
 40
8.0
 10
342.77993842230899
 20
558.29667154947913
 30
0.0
 10
342.77993842230899
 20
561.80360649956594
 30
0.0
 10
339.93687337239578
 20
564.64667154947915
 30
0.0
 10
336.42993842230902
 20
564.64667154947915
 30
0.0
 10
332.92300347222221
 20
564.64667154947915
 30
0.0
 10
330.079938422309
 20
561.80360649956594
 30
0.0
 10
330.079938422309
 20
558.29667154947913
 30
0.0
 10
330.079938422309
 20
546.46104600694434
 30
0.0
 10
332.10375976562494
 20
536.5166056315104
 30
0.0
 10
334.84243842230899
 20
533.69696723090271
 30
0.0
 10
334.84243842230899
 20
533.69696723090271
 30
0.0
 10
334.84243842230899
 20
552.15475531684024
 30
0.0
 10
334.84243842230899
 20
552.15475531684024
 30
0.0
 10
335.35076226128467
 20
552.02366943359368
 30
0.0
 10
335.88079020182289
 20
551.94667154947911
 30
0.0
 10
336.42993842230902
 20
551.94667154947911
 30
0.0
 10
336.9790866427951
 20
551.94667154947911
 30
0.0
 10
337.50911458333331
 20
552.02366943359368
 30
0.0
 10
338.017438422309
 20
552.15475531684024
 30
0.0
 10
338.017438422309
 20
552.15475531684024
 30
0.0
 10
338.017438422309
 20
533.69696723090271
 30
0.0
 10
338.017438422309
 20
533.69696723090271
 30
0.0
 10
340.75611707899304
 20
536.5166056315104
 30
0.0
 10
342.77993842230899
 20
546.46104600694434
 30
0.0
 10
342.77993842230899
 20
558.29667154947913
 30
0.0
  0
POLYLINE
  5
3E2
100
AcDbEntity
  8
LAYER_1
 62
     7
100
AcDb2dPolyline
 66
     1
 10
0.0
 20
0.0
 30
0.0
 70
     1
  0
VERTEX
  5
3E3
100
AcDbEntity
  8
LAYER_1
 62
     7
100
AcDbVertex
100
AcDb2dVertex
 10
425.103079
 20
530.788445
 30
0.0
  0
VERTEX
  5
3E4
100
AcDbEntity
  8
LAYER_1
 62
     7
100
AcDbVertex
100
AcDb2dVertex
 10
421.928079
 20
530.788445
 30
0.0
  0
VERTEX
  5
3E5
100
AcDbEntity
  8
LAYER_1
 62
     7
100
AcDbVertex
100
AcDb2dVertex
 10
421.928079
 20
561.725575
 30
0.0
  0
VERTEX
  5
3E6
100
AcDbEntity
  8
LAYER_1
 62
     7
100
AcDbVertex
100
AcDb2dVertex
 10
425.103079
 20
561.725575
 30
0.0
  0
SEQEND
  5
3E7
100
AcDbEntity
  8
LAYER_1
 62
     7
  0
POLYLINE
  5
3DC
100
AcDbEntity
  8
LAYER_1
 62
     7
100
AcDb2dPolyline
 66
     1
 10
0.0
 20
0.0
 30
0.0
 70
     1
  0
VERTEX
  5
3DD
100
AcDbEntity
  8
LAYER_1
 62
     7
100
AcDbVertex
100
AcDb2dVertex
 10
450.101208
 20
533.709542
 30
0.0
  0
VERTEX
  5
3DE
100
AcDbEntity
  8
LAYER_1
 62
     7
100
AcDbVertex
100
AcDb2dVertex
 10
446.926208
 20
533.709542
 30
0.0
  0
VERTEX
  5
3DF
100
AcDbEntity
  8
LAYER_1
 62
     7
100
AcDbVertex
100
AcDb2dVertex
 10
446.926208
 20
564.646672
 30
0.0
  0
VERTEX
  5
3E0
100
AcDbEntity
  8
LAYER_1
 62
     7
100
AcDbVertex
100
AcDb2dVertex
 10
450.101208
 20
564.646672
 30
0.0
  0
SEQEND
  5
3E1
100
AcDbEntity
  8
LAYER_1
 62
     7
  0
POLYLINE
  5
3D6
100
AcDbEntity
  8
LAYER_1
 62
     7
100
AcDb2dPolyline
 66
     1
 10
0.0
 20
0.0
 30
0.0
 70
     1
  0
VERTEX
  5
3D7
100
AcDbEntity
  8
LAYER_1
 62
     7
100
AcDbVertex
100
AcDb2dVertex
 10
471.274593
 20
525.282838
 30
0.0
  0
VERTEX
  5
3D8
100
AcDbEntity
  8
LAYER_1
 62
     7
100
AcDbVertex
100
AcDb2dVertex
 10
468.099593
 20
525.282838
 30
0.0
  0
VERTEX
  5
3D9
100
AcDbEntity
  8
LAYER_1
 62
     7
100
AcDbVertex
100
AcDb2dVertex
 10
468.099593
 20
556.219968
 30
0.0
  0
VERTEX
  5
3DA
100
AcDbEntity
  8
LAYER_1
 62
     7
100
AcDbVertex
100
AcDb2dVertex
 10
471.274593
 20
556.219968
 30
0.0
  0
SEQEND
  5
3DB
100
AcDbEntity
  8
LAYER_1
 62
     7
  0
POLYLINE
  5
3D0
100
AcDbEntity
  8
LAYER_1
 62
     7
100
AcDb2dPolyline
 66
     1
 10
0.0
 20
0.0
 30
0.0
 70
     1
  0
VERTEX
  5
3D1
100
AcDbEntity
  8
LAYER_1
 62
     7
100
AcDbVertex
100
AcDb2dVertex
 10
493.234321
 20
512.624868
 30
0.0
  0
VERTEX
  5
3D2
100
AcDbEntity
  8
LAYER_1
 62
     7
100
AcDbVertex
100
AcDb2dVertex
 10
490.059321
 20
512.624868
 30
0.0
  0
VERTEX
  5
3D3
100
AcDbEntity
  8
LAYER_1
 62
     7
100
AcDbVertex
100
AcDb2dVertex
 10
490.059321
 20
543.561998
 30
0.0
  0
VERTEX
  5
3D4
100
AcDbEntity
  8
LAYER_1
 62
     7
100
AcDbVertex
100
AcDb2dVertex
 10
493.234321
 20
543.561998
 30
0.0
  0
SEQEND
  5
3D5
100
AcDbEntity
  8
LAYER_1
 62
     7
  0
SPLINE
  5
3CF
100
AcDbEntity
  8
LAYER_1
 62
     7
100
AcDbSpline
210
0.0
220
0.0
230
1.0
 70
     8
 71
     3
 72
    29
 73
    25
 74
     0
 42
0.00000001
 43
0.00000001
 40
0.0
 40
0.0
 40
0.0
 40
0.0
 40
1.0
 40
1.0
 40
1.0
 40
2.0
 40
2.0
 40
2.0
 40
3.0
 40
3.0
 40
3.0
 40
4.0
 40
4.0
 40
4.0
 40
5.0
 40
5.0
 40
5.0
 40
6.0
 40
6.0
 40
6.0
 40
7.0
 40
7.0
 40
7.0
 40
8.0
 40
8.0
 40
8.0
 40
8.0
 10
429.8655788845486
 20
528.40082194010415
 30
0.0
 10
429.8655788845486
 20
525.76360134548611
 30
0.0
 10
427.72772488064231
 20
523.6255750868055
 30
0.0
 10
425.09033203124994
 20
523.6255750868055
 30
0.0
 10
425.09033203124994
 20
523.6255750868055
 30
0.0
 10
421.94082573784721
 20
523.6255750868055
 30
0.0
 10
421.94082573784721
 20
523.6255750868055
 30
0.0
 10
419.30343288845484
 20
523.6255750868055
 30
0.0
 10
417.16557888454855
 20
525.76360134548611
 30
0.0
 10
417.16557888454855
 20
528.40082194010415
 30
0.0
 10
417.16557888454855
 20
528.40082194010415
 30
0.0
 10
417.16557888454855
 20
544.25032823350693
 30
0.0
 10
417.16557888454855
 20
544.25032823350693
 30
0.0
 10
417.16557888454855
 20
546.88754882812498
 30
0.0
 10
419.30343288845484
 20
549.02557508680547
 30
0.0
 10
421.94082573784721
 20
549.02557508680547
 30
0.0
 10
421.94082573784721
 20
549.02557508680547
 30
0.0
 10
425.09033203124994
 20
549.02557508680547
 30
0.0
 10
425.09033203124994
 20
549.02557508680547
 30
0.0
 10
427.72772488064231
 20
549.02557508680547
 30
0.0
 10
429.8655788845486
 20
546.88754882812498
 30
0.0
 10
429.8655788845486
 20
544.25032823350693
 30
0.0
 10
429.8655788845486
 20
544.25032823350693
 30
0.0
 10
429.8655788845486
 20
528.40082194010415
 30
0.0
 10
429.8655788845486
 20
528.40082194010415
 30
0.0
  0
SPLINE
  5
3CE
100
AcDbEntity
  8
LAYER_1
 62
     7
100
AcDbSpline
210
0.0
220
0.0
230
1.0
 70
     8
 71
     3
 72
    29
 73
    25
 74
     0
 42
0.00000001
 43
0.00000001
 40
0.0
 40
0.0
 40
0.0
 40
0.0
 40
1.0
 40
1.0
 40
1.0
 40
2.0
 40
2.0
 40
2.0
 40
3.0
 40
3.0
 40
3.0
 40
4.0
 40
4.0
 40
4.0
 40
5.0
 40
5.0
 40
5.0
 40
6.0
 40
6.0
 40
6.0
 40
7.0
 40
7.0
 40
7.0
 40
8.0
 40
8.0
 40
8.0
 40
8.0
 10
454.86370849609369
 20
531.32191840277778
 30
0.0
 10
454.86370849609369
 20
528.68469780815963
 30
0.0
 10
452.72585449218747
 20
526.54667154947913
 30
0.0
 10
450.0884616427951
 20
526.54667154947913
 30
0.0
 10
450.0884616427951
 20
526.54667154947913
 30
0.0
 10
446.9389553493923
 20
526.54667154947913
 30
0.0
 10
446.9389553493923
 20
526.54667154947913
 30
0.0
 10
444.30156249999993
 20
526.54667154947913
 30
0.0
 10
442.1637084960937
 20
528.68469780815963
 30
0.0
 10
442.1637084960937
 20
531.32191840277778
 30
0.0
 10
442.1637084960937
 20
531.32191840277778
 30
0.0
 10
442.1637084960937
 20
547.17142469618045
 30
0.0
 10
442.1637084960937
 20
547.17142469618045
 30
0.0
 10
442.1637084960937
 20
549.80864529079861
 30
0.0
 10
444.30156249999993
 20
551.94667154947911
 30
0.0
 10
446.9389553493923
 20
551.94667154947911
 30
0.0
 10
446.9389553493923
 20
551.94667154947911
 30
0.0
 10
450.0884616427951
 20
551.94667154947911
 30
0.0
 10
450.0884616427951
 20
551.94667154947911
 30
0.0
 10
452.72585449218747
 20
551.94667154947911
 30
0.0
 10
454.86370849609369
 20
549.80864529079861
 30
0.0
 10
454.86370849609369
 20
547.17142469618045
 30
0.0
 10
454.86370849609369
 20
547.17142469618045
 30
0.0
 10
454.86370849609369
 20
531.32191840277778
 30
0.0
 10
454.86370849609369
 20
531.32191840277778
 30
0.0
  0
SPLINE
  5
3CD
100
AcDbEntity
  8
LAYER_1
 62
     7
100
AcDbSpline
210
0.0
220
0.0
230
1.0
 70
     8
 71
     3
 72
    29
 73
    25
 74
     0
 42
0.00000001
 43
0.00000001
 40
0.0
 40
0.0
 40
0.0
 40
0.0
 40
1.0
 40
1.0
 40
1.0
 40
2.0
 40
2.0
 40
2.0
 40
3.0
 40
3.0
 40
3.0
 40
4.0
 40
4.0
 40
4.0
 40
5.0
 40
5.0
 40
5.0
 40
6.0
 40
6.0
 40
6.0
 40
7.0
 40
7.0
 40
7.0
 40
8.0
 40
8.0
 40
8.0
 40
8.0
 10
476.03709309895828
 20
522.89521484374995
 30
0.0
 10
476.03709309895828
 20
520.25799424913191
 30
0.0
 10
473.89941134982632
 20
518.1199679904513
 30
0.0
 10
471.26184624565968
 20
518.1199679904513
 30
0.0
 10
471.26184624565968
 20
518.1199679904513
 30
0.0
 10
468.11233995225689
 20
518.1199679904513
 30
0.0
 10
468.11233995225689
 20
518.1199679904513
 30
0.0
 10
465.47511935763885
 20
518.1199679904513
 30
0.0
 10
463.33709309895829
 20
520.25799424913191
 30
0.0
 10
463.33709309895829
 20
522.89521484374995
 30
0.0
 10
463.33709309895829
 20
522.89521484374995
 30
0.0
 10
463.33709309895829
 20
538.74472113715274
 30
0.0
 10
463.33709309895829
 20
538.74472113715274
 30
0.0
 10
463.33709309895829
 20
541.38194173177078
 30
0.0
 10
465.47511935763885
 20
543.51996799045139
 30
0.0
 10
468.11233995225689
 20
543.51996799045139
 30
0.0
 10
468.11233995225689
 20
543.51996799045139
 30
0.0
 10
471.26184624565968
 20
543.51996799045139
 30
0.0
 10
471.26184624565968
 20
543.51996799045139
 30
0.0
 10
473.89941134982632
 20
543.51996799045139
 30
0.0
 10
476.03709309895828
 20
541.38194173177078
 30
0.0
 10
476.03709309895828
 20
538.74472113715274
 30
0.0
 10
476.03709309895828
 20
538.74472113715274
 30
0.0
 10
476.03709309895828
 20
522.89521484374995
 30
0.0
 10
476.03709309895828
 20
522.89521484374995
 30
0.0
  0
SPLINE
  5
3CC
100
AcDbEntity
  8
LAYER_1
 62
     7
100
AcDbSpline
210
0.0
220
0.0
230
1.0
 70
     8
 71
     3
 72
    29
 73
    25
 74
     0
 42
0.00000001
 43
0.00000001
 40
0.0
 40
0.0
 40
0.0
 40
0.0
 40
1.0
 40
1.0
 40
1.0
 40
2.0
 40
2.0
 40
2.0
 40
3.0
 40
3.0
 40
3.0
 40
4.0
 40
4.0
 40
4.0
 40
5.0
 40
5.0
 40
5.0
 40
6.0
 40
6.0
 40
6.0
 40
7.0
 40
7.0
 40
7.0
 40
8.0
 40
8.0
 40
8.0
 40
8.0
 10
497.97959526909716
 20
510.23724500868053
 30
0.0
 10
497.97959526909716
 20
507.60002441406243
 30
0.0
 10
495.84191351996526
 20
505.46199815538188
 30
0.0
 10
493.20434841579856
 20
505.46199815538188
 30
0.0
 10
493.20434841579856
 20
505.46199815538188
 30
0.0
 10
490.05484212239577
 20
505.46199815538188
 30
0.0
 10
490.05484212239577
 20
505.46199815538188
 30
0.0
 10
487.41762152777773
 20
505.46199815538188
 30
0.0
 10
485.27959526909717
 20
507.60002441406243
 30
0.0
 10
485.27959526909717
 20
510.23724500868053
 30
0.0
 10
485.27959526909717
 20
510.23724500868053
 30
0.0
 10
485.27959526909717
 20
526.08675130208326
 30
0.0
 10
485.27959526909717
 20
526.08675130208326
 30
0.0
 10
485.27959526909717
 20
528.7239718967013
 30
0.0
 10
487.41762152777773
 20
530.86199815538191
 30
0.0
 10
490.05484212239577
 20
530.86199815538191
 30
0.0
 10
490.05484212239577
 20
530.86199815538191
 30
0.0
 10
493.20434841579856
 20
530.86199815538191
 30
0.0
 10
493.20434841579856
 20
530.86199815538191
 30
0.0
 10
495.84191351996526
 20
530.86199815538191
 30
0.0
 10
497.97959526909716
 20
528.7239718967013
 30
0.0
 10
497.97959526909716
 20
526.08675130208326
 30
0.0
 10
497.97959526909716
 20
526.08675130208326
 30
0.0
 10
497.97959526909716
 20
510.23724500868053
 30
0.0
 10
497.97959526909716
 20
510.23724500868053
 30
0.0
  0
POLYLINE
  5
3C6
100
AcDbEntity
  8
LAYER_1
 62
     7
100
AcDb2dPolyline
 66
     1
 10
0.0
 20
0.0
 30
0.0
 70
     1
  0
VERTEX
  5
3C7
100
AcDbEntity
  8
LAYER_1
 62
     7
100
AcDbVertex
100
AcDb2dVertex
 10
430.564072
 20
522.930699
 30
0.0
  0
VERTEX
  5
3C8
100
AcDbEntity
  8
LAYER_1
 62
     7
100
AcDbVertex
100
AcDb2dVertex
 10
474.075456
 20
522.930699
 30
0.0
  0
VERTEX
  5
3C9
100
AcDbEntity
  8
LAYER_1
 62
     7
100
AcDbVertex
100
AcDb2dVertex
 10
474.075456
 20
474.166234
 30
0.0
  0
VERTEX
  5
3CA
100
AcDbEntity
  8
LAYER_1
 62
     7
100
AcDbVertex
100
AcDb2dVertex
 10
430.564072
 20
474.166234
 30
0.0
  0
SEQEND
  5
3CB
100
AcDbEntity
  8
LAYER_1
 62
     7
  0
POLYLINE
  5
3C0
100
AcDbEntity
  8
LAYER_1
 62
     7
100
AcDb2dPolyline
 66
     1
 10
0.0
 20
0.0
 30
0.0
 70
     1
  0
VERTEX
  5
3C1
100
AcDbEntity
  8
LAYER_1
 62
     7
100
AcDbVertex
100
AcDb2dVertex
 10
417.165579
 20
544.250328
 30
0.0
  0
VERTEX
  5
3C2
100
AcDbEntity
  8
LAYER_1
 62
     7
100
AcDbVertex
100
AcDb2dVertex
 10
454.863708
 20
544.250328
 30
0.0
  0
VERTEX
  5
3C3
100
AcDbEntity
  8
LAYER_1
 62
     7
100
AcDbVertex
100
AcDb2dVertex
 10
454.863708
 20
510.005046
 30
0.0
  0
VERTEX
  5
3C4
100
AcDbEntity
  8
LAYER_1
 62
     7
100
AcDbVertex
100
AcDb2dVertex
 10
417.165579
 20
510.005046
 30
0.0
  0
SEQEND
  5
3C5
100
AcDbEntity
  8
LAYER_1
 62
     7
  0
POLYLINE
  5
3BA
100
AcDbEntity
  8
LAYER_1
 62
     7
100
AcDb2dPolyline
 66
     1
 10
0.0
 20
0.0
 30
0.0
 70
     1
  0
VERTEX
  5
3BB
100
AcDbEntity
  8
LAYER_1
 62
     7
100
AcDbVertex
100
AcDb2dVertex
 10
454.863708
 20
538.744721
 30
0.0
  0
VERTEX
  5
3BC
100
AcDbEntity
  8
LAYER_1
 62
     7
100
AcDbVertex
100
AcDb2dVertex
 10
476.037093
 20
538.744721
 30
0.0
  0
VERTEX
  5
3BD
100
AcDbEntity
  8
LAYER_1
 62
     7
100
AcDbVertex
100
AcDb2dVertex
 10
476.037093
 20
504.499438
 30
0.0
  0
VERTEX
  5
3BE
100
AcDbEntity
  8
LAYER_1
 62
     7
100
AcDbVertex
100
AcDb2dVertex
 10
454.863708
 20
504.499438
 30
0.0
  0
SEQEND
  5
3BF
100
AcDbEntity
  8
LAYER_1
 62
     7
  0
POLYLINE
  5
3B4
100
AcDbEntity
  8
LAYER_1
 62
     7
100
AcDb2dPolyline
 66
     1
 10
0.0
 20
0.0
 30
0.0
 70
     1
  0
VERTEX
  5
3B5
100
AcDbEntity
  8
LAYER_1
 62
     7
100
AcDbVertex
100
AcDb2dVertex
 10
468.048606
 20
526.086751
 30
0.0
  0
VERTEX
  5
3B6
100
AcDbEntity
  8
LAYER_1
 62
     7
100
AcDbVertex
100
AcDb2dVertex
 10
497.979595
 20
526.086751
 30
0.0
  0
VERTEX
  5
3B7
100
AcDbEntity
  8
LAYER_1
 62
     7
100
AcDbVertex
100
AcDb2dVertex
 10
497.979595
 20
474.166234
 30
0.0
  0
VERTEX
  5
3B8
100
AcDbEntity
  8
LAYER_1
 62
     7
100
AcDbVertex
100
AcDb2dVertex
 10
468.048606
 20
474.166234
 30
0.0
  0
SEQEND
  5
3B9
100
AcDbEntity
  8
LAYER_1
 62
     7
  0
POLYLINE
  5
3AE
100
AcDbEntity
  8
LAYER_1
 62
     7
100
AcDb2dPolyline
 66
     1
 10
0.0
 20
0.0
 30
0.0
 70
     1
  0
VERTEX
  5
3AF
100
AcDbEntity
  8
LAYER_1
 62
     7
100
AcDbVertex
100
AcDb2dVertex
 10
456.449658
 20
319.826473
 30
0.0
  0
VERTEX
  5
3B0
100
AcDbEntity
  8
LAYER_1
 62
     7
100
AcDbVertex
100
AcDb2dVertex
 10
453.274658
 20
319.826473
 30
0.0
  0
VERTEX
  5
3B1
100
AcDbEntity
  8
LAYER_1
 62
     7
100
AcDbVertex
100
AcDb2dVertex
 10
453.274658
 20
347.59911
 30
0.0
  0
VERTEX
  5
3B2
100
AcDbEntity
  8
LAYER_1
 62
     7
100
AcDbVertex
100
AcDb2dVertex
 10
456.449658
 20
347.59911
 30
0.0
  0
SEQEND
  5
3B3
100
AcDbEntity
  8
LAYER_1
 62
     7
  0
POLYLINE
  5
3A8
100
AcDbEntity
  8
LAYER_1
 62
     7
100
AcDb2dPolyline
 66
     1
 10
0.0
 20
0.0
 30
0.0
 70
     1
  0
VERTEX
  5
3A9
100
AcDbEntity
  8
LAYER_1
 62
     7
100
AcDbVertex
100
AcDb2dVertex
 10
453.274658
 20
277.838338
 30
0.0
  0
VERTEX
  5
3AA
100
AcDbEntity
  8
LAYER_1
 62
     7
100
AcDbVertex
100
AcDb2dVertex
 10
450.099658
 20
277.838338
 30
0.0
  0
VERTEX
  5
3AB
100
AcDbEntity
  8
LAYER_1
 62
     7
100
AcDbVertex
100
AcDb2dVertex
 10
450.099658
 20
319.826473
 30
0.0
  0
VERTEX
  5
3AC
100
AcDbEntity
  8
LAYER_1
 62
     7
100
AcDbVertex
100
AcDb2dVertex
 10
453.274658
 20
319.826473
 30
0.0
  0
SEQEND
  5
3AD
100
AcDbEntity
  8
LAYER_1
 62
     7
  0
POLYLINE
  5
3A2
100
AcDbEntity
  8
LAYER_1
 62
     7
100
AcDb2dPolyline
 66
     1
 10
0.0
 20
0.0
 30
0.0
 70
     1
  0
VERTEX
  5
3A3
100
AcDbEntity
  8
LAYER_1
 62
     7
100
AcDbVertex
100
AcDb2dVertex
 10
459.624658
 20
277.838338
 30
0.0
  0
VERTEX
  5
3A4
100
AcDbEntity
  8
LAYER_1
 62
     7
100
AcDbVertex
100
AcDb2dVertex
 10
456.449658
 20
277.838338
 30
0.0
  0
VERTEX
  5
3A5
100
AcDbEntity
  8
LAYER_1
 62
     7
100
AcDbVertex
100
AcDb2dVertex
 10
456.449658
 20
319.826473
 30
0.0
  0
VERTEX
  5
3A6
100
AcDbEntity
  8
LAYER_1
 62
     7
100
AcDbVertex
100
AcDb2dVertex
 10
459.624658
 20
319.826473
 30
0.0
  0
SEQEND
  5
3A7
100
AcDbEntity
  8
LAYER_1
 62
     7
  0
POLYLINE
  5
39C
100
AcDbEntity
  8
LAYER_1
 62
     7
100
AcDb2dPolyline
 66
     1
 10
0.0
 20
0.0
 30
0.0
 70
     1
  0
VERTEX
  5
39D
100
AcDbEntity
  8
LAYER_1
 62
     7
100
AcDbVertex
100
AcDb2dVertex
 10
453.274658
 20
347.752762
 30
0.0
  0
VERTEX
  5
39E
100
AcDbEntity
  8
LAYER_1
 62
     7
100
AcDbVertex
100
AcDb2dVertex
 10
450.099658
 20
347.752762
 30
0.0
  0
VERTEX
  5
39F
100
AcDbEntity
  8
LAYER_1
 62
     7
100
AcDbVertex
100
AcDb2dVertex
 10
450.099658
 20
366.595367
 30
0.0
  0
VERTEX
  5
3A0
100
AcDbEntity
  8
LAYER_1
 62
     7
100
AcDbVertex
100
AcDb2dVertex
 10
453.274658
 20
366.595367
 30
0.0
  0
SEQEND
  5
3A1
100
AcDbEntity
  8
LAYER_1
 62
     7
  0
POLYLINE
  5
396
100
AcDbEntity
  8
LAYER_1
 62
     7
100
AcDb2dPolyline
 66
     1
 10
0.0
 20
0.0
 30
0.0
 70
     1
  0
VERTEX
  5
397
100
AcDbEntity
  8
LAYER_1
 62
     7
100
AcDbVertex
100
AcDb2dVertex
 10
459.624658
 20
347.752762
 30
0.0
  0
VERTEX
  5
398
100
AcDbEntity
  8
LAYER_1
 62
     7
100
AcDbVertex
100
AcDb2dVertex
 10
456.449658
 20
347.752762
 30
0.0
  0
VERTEX
  5
399
100
AcDbEntity
  8
LAYER_1
 62
     7
100
AcDbVertex
100
AcDb2dVertex
 10
456.449658
 20
366.595367
 30
0.0
  0
VERTEX
  5
39A
100
AcDbEntity
  8
LAYER_1
 62
     7
100
AcDbVertex
100
AcDb2dVertex
 10
459.624658
 20
366.595367
 30
0.0
  0
SEQEND
  5
39B
100
AcDbEntity
  8
LAYER_1
 62
     7
  0
INSERT
  5
386
100
AcDbEntity
  8
LAYER_1
 62
     7
100
AcDbBlockReference
  2
AI9-BLK50
 10
451.432996
 20
347.59911
 30
0.0
  0
INSERT
  5
375
100
AcDbEntity
  8
LAYER_1
 62
     7
100
AcDbBlockReference
  2
AI9-BLK49
 10
451.432996
 20
319.826473
 30
0.0
  0
INSERT
  5
364
100
AcDbEntity
  8
LAYER_1
 62
     7
100
AcDbBlockReference
  2
AI9-BLK48
 10
451.432996
 20
277.838338
 30
0.0
  0
POLYLINE
  5
35D
100
AcDbEntity
  8
LAYER_1
 62
     7
100
AcDb2dPolyline
 66
     1
 10
0.0
 20
0.0
 30
0.0
 70
     1
  0
VERTEX
  5
35E
100
AcDbEntity
  8
LAYER_1
 62
     7
100
AcDbVertex
100
AcDb2dVertex
 10
427.825221
 20
315.775385
 30
0.0
  0
VERTEX
  5
35F
100
AcDbEntity
  8
LAYER_1
 62
     7
100
AcDbVertex
100
AcDb2dVertex
 10
424.67382
 20
315.388156
 30
0.0
  0
VERTEX
  5
360
100
AcDbEntity
  8
LAYER_1
 62
     7
100
AcDbVertex
100
AcDb2dVertex
 10
422.066916
 20
336.62028
 30
0.0
  0
VERTEX
  5
361
100
AcDbEntity
  8
LAYER_1
 62
     7
100
AcDbVertex
100
AcDb2dVertex
 10
425.218317
 20
337.007164
 30
0.0
  0
SEQEND
  5
362
100
AcDbEntity
  8
LAYER_1
 62
     7
  0
POLYLINE
  5
357
100
AcDbEntity
  8
LAYER_1
 62
     7
100
AcDb2dPolyline
 66
     1
 10
0.0
 20
0.0
 30
0.0
 70
     1
  0
VERTEX
  5
358
100
AcDbEntity
  8
LAYER_1
 62
     7
100
AcDbVertex
100
AcDb2dVertex
 10
429.593589
 20
275.321007
 30
0.0
  0
VERTEX
  5
359
100
AcDbEntity
  8
LAYER_1
 62
     7
100
AcDbVertex
100
AcDb2dVertex
 10
426.442187
 20
274.934123
 30
0.0
  0
VERTEX
  5
35A
100
AcDbEntity
  8
LAYER_1
 62
     7
100
AcDbVertex
100
AcDb2dVertex
 10
421.522591
 20
315.001272
 30
0.0
  0
VERTEX
  5
35B
100
AcDbEntity
  8
LAYER_1
 62
     7
100
AcDbVertex
100
AcDb2dVertex
 10
424.67382
 20
315.388156
 30
0.0
  0
SEQEND
  5
35C
100
AcDbEntity
  8
LAYER_1
 62
     7
  0
POLYLINE
  5
351
100
AcDbEntity
  8
LAYER_1
 62
     7
100
AcDb2dPolyline
 66
     1
 10
0.0
 20
0.0
 30
0.0
 70
     1
  0
VERTEX
  5
352
100
AcDbEntity
  8
LAYER_1
 62
     7
100
AcDbVertex
100
AcDb2dVertex
 10
435.896219
 20
276.094775
 30
0.0
  0
VERTEX
  5
353
100
AcDbEntity
  8
LAYER_1
 62
     7
100
AcDbVertex
100
AcDb2dVertex
 10
432.744817
 20
275.707891
 30
0.0
  0
VERTEX
  5
354
100
AcDbEntity
  8
LAYER_1
 62
     7
100
AcDbVertex
100
AcDb2dVertex
 10
427.825221
 20
315.775385
 30
0.0
  0
VERTEX
  5
355
100
AcDbEntity
  8
LAYER_1
 62
     7
100
AcDbVertex
100
AcDb2dVertex
 10
430.976622
 20
316.162269
 30
0.0
  0
SEQEND
  5
356
100
AcDbEntity
  8
LAYER_1
 62
     7
  0
POLYLINE
  5
34B
100
AcDbEntity
  8
LAYER_1
 62
     7
100
AcDb2dPolyline
 66
     1
 10
0.0
 20
0.0
 30
0.0
 70
     1
  0
VERTEX
  5
34C
100
AcDbEntity
  8
LAYER_1
 62
     7
100
AcDbVertex
100
AcDb2dVertex
 10
422.066916
 20
336.62028
 30
0.0
  0
VERTEX
  5
34D
100
AcDbEntity
  8
LAYER_1
 62
     7
100
AcDbVertex
100
AcDb2dVertex
 10
418.915687
 20
336.233051
 30
0.0
  0
VERTEX
  5
34E
100
AcDbEntity
  8
LAYER_1
 62
     7
100
AcDbVertex
100
AcDb2dVertex
 10
416.710826
 20
354.189233
 30
0.0
  0
VERTEX
  5
34F
100
AcDbEntity
  8
LAYER_1
 62
     7
100
AcDbVertex
100
AcDb2dVertex
 10
419.862227
 20
354.576118
 30
0.0
  0
SEQEND
  5
350
100
AcDbEntity
  8
LAYER_1
 62
     7
  0
POLYLINE
  5
345
100
AcDbEntity
  8
LAYER_1
 62
     7
100
AcDb2dPolyline
 66
     1
 10
0.0
 20
0.0
 30
0.0
 70
     1
  0
VERTEX
  5
346
100
AcDbEntity
  8
LAYER_1
 62
     7
100
AcDbVertex
100
AcDb2dVertex
 10
428.369546
 20
337.394048
 30
0.0
  0
VERTEX
  5
347
100
AcDbEntity
  8
LAYER_1
 62
     7
100
AcDbVertex
100
AcDb2dVertex
 10
425.218317
 20
337.007164
 30
0.0
  0
VERTEX
  5
348
100
AcDbEntity
  8
LAYER_1
 62
     7
100
AcDbVertex
100
AcDb2dVertex
 10
423.013628
 20
354.963002
 30
0.0
  0
VERTEX
  5
349
100
AcDbEntity
  8
LAYER_1
 62
     7
100
AcDbVertex
100
AcDb2dVertex
 10
426.164857
 20
355.350231
 30
0.0
  0
SEQEND
  5
34A
100
AcDbEntity
  8
LAYER_1
 62
     7
  0
INSERT
  5
335
100
AcDbEntity
  8
LAYER_1
 62
     7
100
AcDbBlockReference
  2
AI9-BLK47
 10
420.159539
 20
335.86167
 30
0.0
  0
INSERT
  5
324
100
AcDbEntity
  8
LAYER_1
 62
     7
100
AcDbBlockReference
  2
AI9-BLK46
 10
422.764031
 20
314.649528
 30
0.0
  0
INSERT
  5
313
100
AcDbEntity
  8
LAYER_1
 62
     7
100
AcDbBlockReference
  2
AI9-BLK45
 10
427.686039
 20
274.562569
 30
0.0
  0
POLYLINE
  5
30C
100
AcDbEntity
  8
LAYER_1
 62
     7
100
AcDb2dPolyline
 66
     1
 10
0.0
 20
0.0
 30
0.0
 70
     1
  0
VERTEX
  5
30D
100
AcDbEntity
  8
LAYER_1
 62
     7
100
AcDbVertex
100
AcDb2dVertex
 10
481.650876
 20
312.579715
 30
0.0
  0
VERTEX
  5
30E
100
AcDbEntity
  8
LAYER_1
 62
     7
100
AcDbVertex
100
AcDb2dVertex
 10
478.483455
 20
312.801234
 30
0.0
  0
VERTEX
  5
30F
100
AcDbEntity
  8
LAYER_1
 62
     7
100
AcDbVertex
100
AcDb2dVertex
 10
480.309356
 20
338.909546
 30
0.0
  0
VERTEX
  5
310
100
AcDbEntity
  8
LAYER_1
 62
     7
100
AcDbVertex
100
AcDb2dVertex
 10
483.476432
 20
338.687682
 30
0.0
  0
SEQEND
  5
311
100
AcDbEntity
  8
LAYER_1
 62
     7
  0
POLYLINE
  5
306
100
AcDbEntity
  8
LAYER_1
 62
     7
100
AcDb2dPolyline
 66
     1
 10
0.0
 20
0.0
 30
0.0
 70
     1
  0
VERTEX
  5
307
100
AcDbEntity
  8
LAYER_1
 62
     7
100
AcDbVertex
100
AcDb2dVertex
 10
475.777677
 20
274.107989
 30
0.0
  0
VERTEX
  5
308
100
AcDbEntity
  8
LAYER_1
 62
     7
100
AcDbVertex
100
AcDb2dVertex
 10
472.610601
 20
274.329164
 30
0.0
  0
VERTEX
  5
309
100
AcDbEntity
  8
LAYER_1
 62
     7
100
AcDbVertex
100
AcDb2dVertex
 10
475.316379
 20
313.022409
 30
0.0
  0
VERTEX
  5
30A
100
AcDbEntity
  8
LAYER_1
 62
     7
100
AcDbVertex
100
AcDb2dVertex
 10
478.483455
 20
312.801234
 30
0.0
  0
SEQEND
  5
30B
100
AcDbEntity
  8
LAYER_1
 62
     7
  0
POLYLINE
  5
300
100
AcDbEntity
  8
LAYER_1
 62
     7
100
AcDb2dPolyline
 66
     1
 10
0.0
 20
0.0
 30
0.0
 70
     1
  0
VERTEX
  5
301
100
AcDbEntity
  8
LAYER_1
 62
     7
100
AcDbVertex
100
AcDb2dVertex
 10
482.112863
 20
273.66495
 30
0.0
  0
VERTEX
  5
302
100
AcDbEntity
  8
LAYER_1
 62
     7
100
AcDbVertex
100
AcDb2dVertex
 10
478.945443
 20
273.886469
 30
0.0
  0
VERTEX
  5
303
100
AcDbEntity
  8
LAYER_1
 62
     7
100
AcDbVertex
100
AcDb2dVertex
 10
481.650876
 20
312.579715
 30
0.0
  0
VERTEX
  5
304
100
AcDbEntity
  8
LAYER_1
 62
     7
100
AcDbVertex
100
AcDb2dVertex
 10
484.818297
 20
312.35785
 30
0.0
  0
SEQEND
  5
305
100
AcDbEntity
  8
LAYER_1
 62
     7
  0
POLYLINE
  5
2FA
100
AcDbEntity
  8
LAYER_1
 62
     7
100
AcDb2dPolyline
 66
     1
 10
0.0
 20
0.0
 30
0.0
 70
     1
  0
VERTEX
  5
2FB
100
AcDbEntity
  8
LAYER_1
 62
     7
100
AcDbVertex
100
AcDb2dVertex
 10
480.309356
 20
338.909546
 30
0.0
  0
VERTEX
  5
2FC
100
AcDbEntity
  8
LAYER_1
 62
     7
100
AcDbVertex
100
AcDb2dVertex
 10
477.141935
 20
339.130721
 30
0.0
  0
VERTEX
  5
2FD
100
AcDbEntity
  8
LAYER_1
 62
     7
100
AcDbVertex
100
AcDb2dVertex
 10
478.536165
 20
359.067833
 30
0.0
  0
VERTEX
  5
2FE
100
AcDbEntity
  8
LAYER_1
 62
     7
100
AcDbVertex
100
AcDb2dVertex
 10
481.703242
 20
358.846313
 30
0.0
  0
SEQEND
  5
2FF
100
AcDbEntity
  8
LAYER_1
 62
     7
  0
POLYLINE
  5
2F4
100
AcDbEntity
  8
LAYER_1
 62
     7
100
AcDb2dPolyline
 66
     1
 10
0.0
 20
0.0
 30
0.0
 70
     1
  0
VERTEX
  5
2F5
100
AcDbEntity
  8
LAYER_1
 62
     7
100
AcDbVertex
100
AcDb2dVertex
 10
486.644198
 20
338.466162
 30
0.0
  0
VERTEX
  5
2F6
100
AcDbEntity
  8
LAYER_1
 62
     7
100
AcDbVertex
100
AcDb2dVertex
 10
483.476432
 20
338.687682
 30
0.0
  0
VERTEX
  5
2F7
100
AcDbEntity
  8
LAYER_1
 62
     7
100
AcDbVertex
100
AcDb2dVertex
 10
484.870662
 20
358.624794
 30
0.0
  0
VERTEX
  5
2F8
100
AcDbEntity
  8
LAYER_1
 62
     7
100
AcDbVertex
100
AcDb2dVertex
 10
488.038083
 20
358.403274
 30
0.0
  0
SEQEND
  5
2F9
100
AcDbEntity
  8
LAYER_1
 62
     7
  0
INSERT
  5
2E4
100
AcDbEntity
  8
LAYER_1
 62
     7
100
AcDbBlockReference
  2
AI9-BLK44
 10
478.417482
 20
339.343456
 30
0.0
  0
INSERT
  5
2D3
100
AcDbEntity
  8
LAYER_1
 62
     7
100
AcDbBlockReference
  2
AI9-BLK43
 10
476.591409
 20
313.235144
 30
0.0
  0
INSERT
  5
2C2
100
AcDbEntity
  8
LAYER_1
 62
     7
100
AcDbBlockReference
  2
AI9-BLK42
 10
473.885803
 20
274.542071
 30
0.0
  0
POLYLINE
  5
2BB
100
AcDbEntity
  8
LAYER_1
 62
     7
100
AcDb2dPolyline
 66
     1
 10
0.0
 20
0.0
 30
0.0
 70
     1
  0
VERTEX
  5
2BC
100
AcDbEntity
  8
LAYER_1
 62
     7
100
AcDbVertex
100
AcDb2dVertex
 10
501.470855
 20
289.844151
 30
0.0
  0
VERTEX
  5
2BD
100
AcDbEntity
  8
LAYER_1
 62
     7
100
AcDbVertex
100
AcDb2dVertex
 10
498.319626
 20
290.231036
 30
0.0
  0
VERTEX
  5
2BE
100
AcDbEntity
  8
LAYER_1
 62
     7
100
AcDbVertex
100
AcDb2dVertex
 10
500.359467
 20
306.844664
 30
0.0
  0
VERTEX
  5
2BF
100
AcDbEntity
  8
LAYER_1
 62
     7
100
AcDbVertex
100
AcDb2dVertex
 10
503.510696
 20
306.457435
 30
0.0
  0
SEQEND
  5
2C0
100
AcDbEntity
  8
LAYER_1
 62
     7
  0
POLYLINE
  5
2B5
100
AcDbEntity
  8
LAYER_1
 62
     7
100
AcDb2dPolyline
 66
     1
 10
0.0
 20
0.0
 30
0.0
 70
     1
  0
VERTEX
  5
2B6
100
AcDbEntity
  8
LAYER_1
 62
     7
100
AcDbVertex
100
AcDb2dVertex
 10
494.197914
 20
256.663403
 30
0.0
  0
VERTEX
  5
2B7
100
AcDbEntity
  8
LAYER_1
 62
     7
100
AcDbVertex
100
AcDb2dVertex
 10
491.046341
 20
257.050632
 30
0.0
  0
VERTEX
  5
2B8
100
AcDbEntity
  8
LAYER_1
 62
     7
100
AcDbVertex
100
AcDb2dVertex
 10
495.167708
 20
290.61792
 30
0.0
  0
VERTEX
  5
2B9
100
AcDbEntity
  8
LAYER_1
 62
     7
100
AcDbVertex
100
AcDb2dVertex
 10
498.319626
 20
290.231036
 30
0.0
  0
SEQEND
  5
2BA
100
AcDbEntity
  8
LAYER_1
 62
     7
  0
POLYLINE
  5
2AF
100
AcDbEntity
  8
LAYER_1
 62
     7
100
AcDb2dPolyline
 66
     1
 10
0.0
 20
0.0
 30
0.0
 70
     1
  0
VERTEX
  5
2B0
100
AcDbEntity
  8
LAYER_1
 62
     7
100
AcDbVertex
100
AcDb2dVertex
 10
500.500716
 20
255.889635
 30
0.0
  0
VERTEX
  5
2B1
100
AcDbEntity
  8
LAYER_1
 62
     7
100
AcDbVertex
100
AcDb2dVertex
 10
497.349143
 20
256.276519
 30
0.0
  0
VERTEX
  5
2B2
100
AcDbEntity
  8
LAYER_1
 62
     7
100
AcDbVertex
100
AcDb2dVertex
 10
501.470855
 20
289.844151
 30
0.0
  0
VERTEX
  5
2B3
100
AcDbEntity
  8
LAYER_1
 62
     7
100
AcDbVertex
100
AcDb2dVertex
 10
504.622084
 20
289.456923
 30
0.0
  0
SEQEND
  5
2B4
100
AcDbEntity
  8
LAYER_1
 62
     7
  0
POLYLINE
  5
2A9
100
AcDbEntity
  8
LAYER_1
 62
     7
100
AcDb2dPolyline
 66
     1
 10
0.0
 20
0.0
 30
0.0
 70
     1
  0
VERTEX
  5
2AA
100
AcDbEntity
  8
LAYER_1
 62
     7
100
AcDbVertex
100
AcDb2dVertex
 10
500.373248
 20
306.956285
 30
0.0
  0
VERTEX
  5
2AB
100
AcDbEntity
  8
LAYER_1
 62
     7
100
AcDbVertex
100
AcDb2dVertex
 10
497.22133
 20
307.343169
 30
0.0
  0
VERTEX
  5
2AC
100
AcDbEntity
  8
LAYER_1
 62
     7
100
AcDbVertex
100
AcDb2dVertex
 10
499.307335
 20
324.332313
 30
0.0
  0
VERTEX
  5
2AD
100
AcDbEntity
  8
LAYER_1
 62
     7
100
AcDbVertex
100
AcDb2dVertex
 10
502.459253
 20
323.945429
 30
0.0
  0
SEQEND
  5
2AE
100
AcDbEntity
  8
LAYER_1
 62
     7
  0
POLYLINE
  5
2A3
100
AcDbEntity
  8
LAYER_1
 62
     7
100
AcDb2dPolyline
 66
     1
 10
0.0
 20
0.0
 30
0.0
 70
     1
  0
VERTEX
  5
2A4
100
AcDbEntity
  8
LAYER_1
 62
     7
100
AcDbVertex
100
AcDb2dVertex
 10
506.675705
 20
306.182517
 30
0.0
  0
VERTEX
  5
2A5
100
AcDbEntity
  8
LAYER_1
 62
     7
100
AcDbVertex
100
AcDb2dVertex
 10
503.524476
 20
306.569401
 30
0.0
  0
VERTEX
  5
2A6
100
AcDbEntity
  8
LAYER_1
 62
     7
100
AcDbVertex
100
AcDb2dVertex
 10
505.610482
 20
323.558545
 30
0.0
  0
VERTEX
  5
2A7
100
AcDbEntity
  8
LAYER_1
 62
     7
100
AcDbVertex
100
AcDb2dVertex
 10
508.761711
 20
323.171661
 30
0.0
  0
SEQEND
  5
2A8
100
AcDbEntity
  8
LAYER_1
 62
     7
  0
INSERT
  5
293
100
AcDbEntity
  8
LAYER_1
 62
     7
100
AcDbBlockReference
  2
AI9-BLK41
 10
498.451918
 20
307.60293
 30
0.0
  0
INSERT
  5
282
100
AcDbEntity
  8
LAYER_1
 62
     7
100
AcDbBlockReference
  2
AI9-BLK40
 10
496.432403
 20
291.155527
 30
0.0
  0
INSERT
  5
271
100
AcDbEntity
  8
LAYER_1
 62
     7
100
AcDbBlockReference
  2
AI9-BLK39
 10
492.290365
 20
257.422013
 30
0.0
  0
POLYLINE
  5
26A
100
AcDbEntity
  8
LAYER_1
 62
     7
100
AcDb2dPolyline
 66
     1
 10
0.0
 20
0.0
 30
0.0
 70
     1
  0
VERTEX
  5
26B
100
AcDbEntity
  8
LAYER_1
 62
     7
100
AcDbVertex
100
AcDb2dVertex
 10
433.518758
 20
269.405089
 30
0.0
  0
VERTEX
  5
26C
100
AcDbEntity
  8
LAYER_1
 62
     7
100
AcDbVertex
100
AcDb2dVertex
 10
430.367357
 20
269.018205
 30
0.0
  0
VERTEX
  5
26D
100
AcDbEntity
  8
LAYER_1
 62
     7
100
AcDbVertex
100
AcDb2dVertex
 10
428.819648
 20
281.623465
 30
0.0
  0
VERTEX
  5
26E
100
AcDbEntity
  8
LAYER_1
 62
     7
100
AcDbVertex
100
AcDb2dVertex
 10
431.971049
 20
282.010693
 30
0.0
  0
SEQEND
  5
26F
100
AcDbEntity
  8
LAYER_1
 62
     7
  0
POLYLINE
  5
264
100
AcDbEntity
  8
LAYER_1
 62
     7
100
AcDb2dPolyline
 66
     1
 10
0.0
 20
0.0
 30
0.0
 70
     1
  0
VERTEX
  5
265
100
AcDbEntity
  8
LAYER_1
 62
     7
100
AcDbVertex
100
AcDb2dVertex
 10
456.449658
 20
271.488338
 30
0.0
  0
VERTEX
  5
266
100
AcDbEntity
  8
LAYER_1
 62
     7
100
AcDbVertex
100
AcDb2dVertex
 10
453.274658
 20
271.488338
 30
0.0
  0
VERTEX
  5
267
100
AcDbEntity
  8
LAYER_1
 62
     7
100
AcDbVertex
100
AcDb2dVertex
 10
453.274658
 20
284.188338
 30
0.0
  0
VERTEX
  5
268
100
AcDbEntity
  8
LAYER_1
 62
     7
100
AcDbVertex
100
AcDb2dVertex
 10
456.449658
 20
284.188338
 30
0.0
  0
SEQEND
  5
269
100
AcDbEntity
  8
LAYER_1
 62
     7
  0
POLYLINE
  5
25E
100
AcDbEntity
  8
LAYER_1
 62
     7
100
AcDb2dPolyline
 66
     1
 10
0.0
 20
0.0
 30
0.0
 70
     1
  0
VERTEX
  5
25F
100
AcDbEntity
  8
LAYER_1
 62
     7
100
AcDbVertex
100
AcDb2dVertex
 10
478.502059
 20
267.551628
 30
0.0
  0
VERTEX
  5
260
100
AcDbEntity
  8
LAYER_1
 62
     7
100
AcDbVertex
100
AcDb2dVertex
 10
475.334983
 20
267.773147
 30
0.0
  0
VERTEX
  5
261
100
AcDbEntity
  8
LAYER_1
 62
     7
100
AcDbVertex
100
AcDb2dVertex
 10
476.221061
 20
280.442486
 30
0.0
  0
VERTEX
  5
262
100
AcDbEntity
  8
LAYER_1
 62
     7
100
AcDbVertex
100
AcDb2dVertex
 10
479.388137
 20
280.220966
 30
0.0
  0
SEQEND
  5
263
100
AcDbEntity
  8
LAYER_1
 62
     7
  0
POLYLINE
  5
258
100
AcDbEntity
  8
LAYER_1
 62
     7
100
AcDb2dPolyline
 66
     1
 10
0.0
 20
0.0
 30
0.0
 70
     1
  0
VERTEX
  5
259
100
AcDbEntity
  8
LAYER_1
 62
     7
100
AcDbVertex
100
AcDb2dVertex
 10
496.575374
 20
249.974061
 30
0.0
  0
VERTEX
  5
25A
100
AcDbEntity
  8
LAYER_1
 62
     7
100
AcDbVertex
100
AcDb2dVertex
 10
493.424146
 20
250.360946
 30
0.0
  0
VERTEX
  5
25B
100
AcDbEntity
  8
LAYER_1
 62
     7
100
AcDbVertex
100
AcDb2dVertex
 10
494.971682
 20
262.966206
 30
0.0
  0
VERTEX
  5
25C
100
AcDbEntity
  8
LAYER_1
 62
     7
100
AcDbVertex
100
AcDb2dVertex
 10
498.123256
 20
262.579321
 30
0.0
  0
SEQEND
  5
25D
100
AcDbEntity
  8
LAYER_1
 62
     7
  0
SPLINE
  5
257
100
AcDbEntity
  8
LAYER_1
 62
     7
100
AcDbSpline
210
0.0
220
0.0
230
1.0
 70
     8
 71
     3
 72
    29
 73
    25
 74
     0
 42
0.00000001
 43
0.00000001
 40
0.0
 40
0.0
 40
0.0
 40
0.0
 40
1.0
 40
1.0
 40
1.0
 40
2.0
 40
2.0
 40
2.0
 40
3.0
 40
3.0
 40
3.0
 40
4.0
 40
4.0
 40
4.0
 40
5.0
 40
5.0
 40
5.0
 40
6.0
 40
6.0
 40
6.0
 40
7.0
 40
7.0
 40
7.0
 40
8.0
 40
8.0
 40
8.0
 40
8.0
 10
440.76086561414928
 20
249.51483018663191
 30
0.0
 10
441.08212076822912
 20
246.89724663628471
 30
0.0
 10
439.2209079318576
 20
244.51461859809027
 30
0.0
 10
436.60315212673606
 20
244.1931911892361
 30
0.0
 10
436.60315212673606
 20
244.1931911892361
 30
0.0
 10
433.47707248263885
 20
243.80940755208331
 30
0.0
 10
433.47707248263885
 20
243.80940755208331
 30
0.0
 10
430.85931667751731
 20
243.48798014322915
 30
0.0
 10
428.47686089409717
 20
245.34936523437497
 30
0.0
 10
428.15543348524301
 20
247.96694878472221
 30
0.0
 10
428.15543348524301
 20
247.96694878472221
 30
0.0
 10
426.22394070095481
 20
263.69828830295137
 30
0.0
 10
426.22394070095481
 20
263.69828830295137
 30
0.0
 10
425.90251329210065
 20
266.31587185329857
 30
0.0
 10
427.7638983832465
 20
268.69849989149304
 30
0.0
 10
430.38165418836803
 20
269.01992730034721
 30
0.0
 10
430.38165418836803
 20
269.01992730034721
 30
0.0
 10
433.50756157769092
 20
269.40371093749997
 30
0.0
 10
433.50756157769092
 20
269.40371093749997
 30
0.0
 10
436.12531738281245
 20
269.72513834635413
 30
0.0
 10
438.5077731662326
 20
267.86375325520834
 30
0.0
 10
438.82920057508676
 20
265.24616970486107
 30
0.0
 10
438.82920057508676
 20
265.24616970486107
 30
0.0
 10
440.76086561414928
 20
249.51483018663191
 30
0.0
 10
440.76086561414928
 20
249.51483018663191
 30
0.0
  0
SPLINE
  5
256
100
AcDbEntity
  8
LAYER_1
 62
     7
100
AcDbSpline
210
0.0
220
0.0
230
1.0
 70
     8
 71
     3
 72
    29
 73
    25
 74
     0
 42
0.00000001
 43
0.00000001
 40
0.0
 40
0.0
 40
0.0
 40
0.0
 40
1.0
 40
1.0
 40
1.0
 40
2.0
 40
2.0
 40
2.0
 40
3.0
 40
3.0
 40
3.0
 40
4.0
 40
4.0
 40
4.0
 40
5.0
 40
5.0
 40
5.0
 40
6.0
 40
6.0
 40
6.0
 40
7.0
 40
7.0
 40
7.0
 40
8.0
 40
8.0
 40
8.0
 40
8.0
 10
443.9095106336805
 20
223.87126193576387
 30
0.0
 10
444.57027994791662
 20
218.48830023871525
 30
0.0
 10
442.98433024088536
 20
213.86394856770832
 30
0.0
 10
440.36640218098955
 20
213.54252115885416
 30
0.0
 10
440.36640218098955
 20
213.54252115885416
 30
0.0
 10
437.24032253689234
 20
213.15873752170137
 30
0.0
 10
437.24032253689234
 20
213.15873752170137
 30
0.0
 10
434.62273898654507
 20
212.83731011284721
 30
0.0
 10
431.96502007378467
 20
216.94041883680555
 30
0.0
 10
431.30390624999995
 20
222.32303602430554
 30
0.0
 10
431.30390624999995
 20
222.32303602430554
 30
0.0
 10
427.33205566406247
 20
254.67317165798607
 30
0.0
 10
427.33205566406247
 20
254.67317165798607
 30
0.0
 10
426.67094184027775
 20
260.05578884548606
 30
0.0
 10
428.25706380208328
 20
264.68048502604165
 30
0.0
 10
430.87481960720481
 20
265.00191243489581
 30
0.0
 10
430.87481960720481
 20
265.00191243489581
 30
0.0
 10
434.00072699652776
 20
265.38569607204857
 30
0.0
 10
434.00072699652776
 20
265.38569607204857
 30
0.0
 10
436.61848280164929
 20
265.70712348090274
 30
0.0
 10
439.27620171440969
 20
261.60401475694442
 30
0.0
 10
439.93731553819441
 20
256.22105305989584
 30
0.0
 10
439.93731553819441
 20
256.22105305989584
 30
0.0
 10
443.9095106336805
 20
223.87126193576387
 30
0.0
 10
443.9095106336805
 20
223.87126193576387
 30
0.0
  0
SPLINE
  5
255
100
AcDbEntity
  8
LAYER_1
 62
     7
100
AcDbSpline
210
0.0
220
0.0
230
1.0
 70
     8
 71
     3
 72
    29
 73
    25
 74
     0
 42
0.00000001
 43
0.00000001
 40
0.0
 40
0.0
 40
0.0
 40
0.0
 40
1.0
 40
1.0
 40
1.0
 40
2.0
 40
2.0
 40
2.0
 40
3.0
 40
3.0
 40
3.0
 40
4.0
 40
4.0
 40
4.0
 40
5.0
 40
5.0
 40
5.0
 40
6.0
 40
6.0
 40
6.0
 40
7.0
 40
7.0
 40
7.0
 40
8.0
 40
8.0
 40
8.0
 40
8.0
 10
461.21353624131939
 20
250.86358506944441
 30
0.0
 10
461.21353624131939
 20
248.22636447482637
 30
0.0
 10
459.07585449218743
 20
246.08833821614581
 30
0.0
 10
456.43846164279512
 20
246.08833821614581
 30
0.0
 10
456.43846164279512
 20
246.08833821614581
 30
0.0
 10
453.28895534939232
 20
246.08833821614581
 30
0.0
 10
453.28895534939232
 20
246.08833821614581
 30
0.0
 10
450.65156249999995
 20
246.08833821614581
 30
0.0
 10
448.51370849609373
 20
248.22636447482637
 30
0.0
 10
448.51370849609373
 20
250.86358506944441
 30
0.0
 10
448.51370849609373
 20
250.86358506944441
 30
0.0
 10
448.51370849609373
 20
266.71309136284719
 30
0.0
 10
448.51370849609373
 20
266.71309136284719
 30
0.0
 10
448.51370849609373
 20
269.35031195746524
 30
0.0
 10
450.65156249999995
 20
271.48833821614579
 30
0.0
 10
453.28895534939232
 20
271.48833821614579
 30
0.0
 10
453.28895534939232
 20
271.48833821614579
 30
0.0
 10
456.43846164279512
 20
271.48833821614579
 30
0.0
 10
456.43846164279512
 20
271.48833821614579
 30
0.0
 10
459.07585449218743
 20
271.48833821614579
 30
0.0
 10
461.21353624131939
 20
269.35031195746524
 30
0.0
 10
461.21353624131939
 20
266.71309136284719
 30
0.0
 10
461.21353624131939
 20
266.71309136284719
 30
0.0
 10
461.21353624131939
 20
250.86358506944441
 30
0.0
 10
461.21353624131939
 20
250.86358506944441
 30
0.0
  0
SPLINE
  5
254
100
AcDbEntity
  8
LAYER_1
 62
     7
100
AcDbSpline
210
0.0
220
0.0
230
1.0
 70
     8
 71
     3
 72
    29
 73
    25
 74
     0
 42
0.00000001
 43
0.00000001
 40
0.0
 40
0.0
 40
0.0
 40
0.0
 40
1.0
 40
1.0
 40
1.0
 40
2.0
 40
2.0
 40
2.0
 40
3.0
 40
3.0
 40
3.0
 40
4.0
 40
4.0
 40
4.0
 40
5.0
 40
5.0
 40
5.0
 40
6.0
 40
6.0
 40
6.0
 40
7.0
 40
7.0
 40
7.0
 40
8.0
 40
8.0
 40
8.0
 40
8.0
 10
481.81589626736104
 20
246.64506564670137
 30
0.0
 10
481.63192816840274
 20
244.0140462239583
 30
0.0
 10
479.35024142795135
 20
242.03070475260415
 30
0.0
 10
476.71922200520828
 20
242.21467285156248
 30
0.0
 10
476.71922200520828
 20
242.21467285156248
 30
0.0
 10
473.57729492187497
 20
242.43412543402775
 30
0.0
 10
473.57729492187497
 20
242.43412543402775
 30
0.0
 10
470.94696451822915
 20
242.61809353298608
 30
0.0
 10
468.96293402777775
 20
244.9001247829861
 30
0.0
 10
469.14690212673605
 20
247.53114420572913
 30
0.0
 10
469.14690212673605
 20
247.53114420572913
 30
0.0
 10
470.25277777777774
 20
263.34172092013887
 30
0.0
 10
470.25277777777774
 20
263.34172092013887
 30
0.0
 10
470.43674587673604
 20
265.97274034288193
 30
0.0
 10
472.71877712673609
 20
267.95608181423609
 30
0.0
 10
475.3494520399305
 20
267.77211371527773
 30
0.0
 10
475.3494520399305
 20
267.77211371527773
 30
0.0
 10
478.49103461371521
 20
267.55266113281249
 30
0.0
 10
478.49103461371521
 20
267.55266113281249
 30
0.0
 10
481.12205403645828
 20
267.36869303385413
 30
0.0
 10
483.10574001736109
 20
265.08666178385414
 30
0.0
 10
482.92177191840273
 20
262.45598687065967
 30
0.0
 10
482.92177191840273
 20
262.45598687065967
 30
0.0
 10
481.81589626736104
 20
246.64506564670137
 30
0.0
 10
481.81589626736104
 20
246.64506564670137
 30
0.0
  0
SPLINE
  5
253
100
AcDbEntity
  8
LAYER_1
 62
     7
100
AcDbSpline
210
0.0
220
0.0
230
1.0
 70
     8
 71
     3
 72
    29
 73
    25
 74
     0
 42
0.00000001
 43
0.00000001
 40
0.0
 40
0.0
 40
0.0
 40
0.0
 40
1.0
 40
1.0
 40
1.0
 40
2.0
 40
2.0
 40
2.0
 40
3.0
 40
3.0
 40
3.0
 40
4.0
 40
4.0
 40
4.0
 40
5.0
 40
5.0
 40
5.0
 40
6.0
 40
6.0
 40
6.0
 40
7.0
 40
7.0
 40
7.0
 40
8.0
 40
8.0
 40
8.0
 40
8.0
 10
498.77334526909715
 20
228.92452799479165
 30
0.0
 10
498.45226236979164
 20
226.30694444444441
 30
0.0
 10
496.06997884114577
 20
224.44521484374997
 30
0.0
 10
493.45205078124997
 20
224.76664225260416
 30
0.0
 10
493.45205078124997
 20
224.76664225260416
 30
0.0
 10
490.32597113715275
 20
225.15042588975692
 30
0.0
 10
490.32597113715275
 20
225.15042588975692
 30
0.0
 10
487.70838758680549
 20
225.47185329861108
 30
0.0
 10
485.84665798611104
 20
227.85448133680555
 30
0.0
 10
486.16808539496526
 20
230.47206488715275
 30
0.0
 10
486.16808539496526
 20
230.47206488715275
 30
0.0
 10
488.09975043402773
 20
246.20340440538192
 30
0.0
 10
488.09975043402773
 20
246.20340440538192
 30
0.0
 10
488.42117784288189
 20
248.82098795572915
 30
0.0
 10
490.80380588107636
 20
250.6827175564236
 30
0.0
 10
493.42138943142356
 20
250.36129014756943
 30
0.0
 10
493.42138943142356
 20
250.36129014756943
 30
0.0
 10
496.54746907552078
 20
249.97750651041665
 30
0.0
 10
496.54746907552078
 20
249.97750651041665
 30
0.0
 10
499.16539713541664
 20
249.65607910156248
 30
0.0
 10
501.02643771701383
 20
247.27345106336804
 30
0.0
 10
500.70501030815967
 20
244.65586751302081
 30
0.0
 10
500.70501030815967
 20
244.65586751302081
 30
0.0
 10
498.77334526909715
 20
228.92452799479165
 30
0.0
 10
498.77334526909715
 20
228.92452799479165
 30
0.0
  0
POLYLINE
  5
24D
100
AcDbEntity
  8
LAYER_1
 62
     7
100
AcDb2dPolyline
 66
     1
 10
0.0
 20
0.0
 30
0.0
 70
     1
  0
VERTEX
  5
24E
100
AcDbEntity
  8
LAYER_1
 62
     7
100
AcDbVertex
100
AcDb2dVertex
 10
440.048248
 20
242.472366
 30
0.0
  0
VERTEX
  5
24F
100
AcDbEntity
  8
LAYER_1
 62
     7
100
AcDbVertex
100
AcDb2dVertex
 10
483.850914
 20
242.472366
 30
0.0
  0
VERTEX
  5
250
100
AcDbEntity
  8
LAYER_1
 62
     7
100
AcDbVertex
100
AcDb2dVertex
 10
483.850914
 20
193.708073
 30
0.0
  0
VERTEX
  5
251
100
AcDbEntity
  8
LAYER_1
 62
     7
100
AcDbVertex
100
AcDb2dVertex
 10
440.048248
 20
193.708073
 30
0.0
  0
SEQEND
  5
252
100
AcDbEntity
  8
LAYER_1
 62
     7
  0
POLYLINE
  5
247
100
AcDbEntity
  8
LAYER_1
 62
     7
100
AcDb2dPolyline
 66
     1
 10
0.0
 20
0.0
 30
0.0
 70
     1
  0
VERTEX
  5
248
100
AcDbEntity
  8
LAYER_1
 62
     7
100
AcDbVertex
100
AcDb2dVertex
 10
432.101618
 20
264.143739
 30
0.0
  0
VERTEX
  5
249
100
AcDbEntity
  8
LAYER_1
 62
     7
100
AcDbVertex
100
AcDb2dVertex
 10
479.623782
 20
264.143739
 30
0.0
  0
VERTEX
  5
24A
100
AcDbEntity
  8
LAYER_1
 62
     7
100
AcDbVertex
100
AcDb2dVertex
 10
479.623782
 20
244.337541
 30
0.0
  0
VERTEX
  5
24B
100
AcDbEntity
  8
LAYER_1
 62
     7
100
AcDbVertex
100
AcDb2dVertex
 10
432.101618
 20
244.337541
 30
0.0
  0
SEQEND
  5
24C
100
AcDbEntity
  8
LAYER_1
 62
     7
  0
POLYLINE
  5
241
100
AcDbEntity
  8
LAYER_1
 62
     7
100
AcDb2dPolyline
 66
     1
 10
0.0
 20
0.0
 30
0.0
 70
     1
  0
VERTEX
  5
242
100
AcDbEntity
  8
LAYER_1
 62
     7
100
AcDbVertex
100
AcDb2dVertex
 10
440.048248
 20
248.500594
 30
0.0
  0
VERTEX
  5
243
100
AcDbEntity
  8
LAYER_1
 62
     7
100
AcDbVertex
100
AcDb2dVertex
 10
493.065856
 20
248.500594
 30
0.0
  0
VERTEX
  5
244
100
AcDbEntity
  8
LAYER_1
 62
     7
100
AcDbVertex
100
AcDb2dVertex
 10
493.065856
 20
207.385791
 30
0.0
  0
VERTEX
  5
245
100
AcDbEntity
  8
LAYER_1
 62
     7
100
AcDbVertex
100
AcDb2dVertex
 10
440.048248
 20
207.385791
 30
0.0
  0
SEQEND
  5
246
100
AcDbEntity
  8
LAYER_1
 62
     7
  0
CIRCLE
  5
240
100
AcDbEntity
  8
LAYER_1
 62
     7
100
AcDbCircle
 10
483.850914
 20
205.657387
 30
0.0
 40
11.949314
  0
CIRCLE
  5
23F
100
AcDbEntity
  8
LAYER_1
 62
     7
100
AcDbCircle
 10
430.42756
 20
216.433301
 30
0.0
 40
9.620688
  0
SPLINE
  5
23E
100
AcDbEntity
  8
LAYER_1
 62
     7
100
AcDbSpline
210
0.0
220
0.0
230
1.0
 70
     8
 71
     3
 72
    23
 73
    19
 74
     0
 42
0.00000001
 43
0.00000001
 40
0.0
 40
0.0
 40
0.0
 40
0.0
 40
1.0
 40
1.0
 40
1.0
 40
2.0
 40
2.0
 40
2.0
 40
3.0
 40
3.0
 40
3.0
 40
4.0
 40
4.0
 40
4.0
 40
5.0
 40
5.0
 40
5.0
 40
6.0
 40
6.0
 40
6.0
 40
6.0
 10
495.72719184027773
 20
204.11501736111109
 30
0.0
 10
495.72719184027773
 20
204.11501736111109
 30
0.0
 10
499.32869466145831
 20
233.44793836805553
 30
0.0
 10
499.32869466145831
 20
233.44793836805553
 30
0.0
 10
500.29883355034718
 20
241.34650878906248
 30
0.0
 10
498.96351453993049
 20
248.01104600694441
 30
0.0
 10
496.34558648003468
 20
248.33247341579857
 30
0.0
 10
496.34558648003468
 20
248.33247341579857
 30
0.0
 10
493.21950683593747
 20
248.71591254340277
 30
0.0
 10
493.21950683593747
 20
248.71591254340277
 30
0.0
 10
490.60192328559026
 20
249.03733995225693
 30
0.0
 10
487.69357367621524
 20
242.89370117187497
 30
0.0
 10
486.72343478732637
 20
234.99513075086804
 30
0.0
 10
486.72343478732637
 20
234.99513075086804
 30
0.0
 10
482.93176269531244
 20
204.11501736111109
 30
0.0
 10
482.93176269531244
 20
204.11501736111109
 30
0.0
 10
482.93176269531244
 20
204.11501736111109
 30
0.0
 10
495.72719184027773
 20
204.11501736111109
 30
0.0
 10
495.72719184027773
 20
204.11501736111109
 30
0.0
  0
POLYLINE
  5
238
100
AcDbEntity
  8
LAYER_1
 62
     7
100
AcDb2dPolyline
 66
     1
 10
0.0
 20
0.0
 30
0.0
 70
     1
  0
VERTEX
  5
239
100
AcDbEntity
  8
LAYER_1
 62
     7
100
AcDbVertex
100
AcDb2dVertex
 10
430.564072
 20
488.192251
 30
0.0
  0
VERTEX
  5
23A
100
AcDbEntity
  8
LAYER_1
 62
     7
100
AcDbVertex
100
AcDb2dVertex
 10
449.106265
 20
488.192251
 30
0.0
  0
VERTEX
  5
23B
100
AcDbEntity
  8
LAYER_1
 62
     7
100
AcDbVertex
100
AcDb2dVertex
 10
449.106265
 20
485.271155
 30
0.0
  0
VERTEX
  5
23C
100
AcDbEntity
  8
LAYER_1
 62
     7
100
AcDbVertex
100
AcDb2dVertex
 10
430.564072
 20
485.271155
 30
0.0
  0
SEQEND
  5
23D
100
AcDbEntity
  8
LAYER_1
 62
     7
  0
POLYLINE
  5
232
100
AcDbEntity
  8
LAYER_1
 62
     7
100
AcDb2dPolyline
 66
     1
 10
0.0
 20
0.0
 30
0.0
 70
     1
  0
VERTEX
  5
233
100
AcDbEntity
  8
LAYER_1
 62
     7
100
AcDbVertex
100
AcDb2dVertex
 10
436.914072
 20
491.494203
 30
0.0
  0
VERTEX
  5
234
100
AcDbEntity
  8
LAYER_1
 62
     7
100
AcDbVertex
100
AcDb2dVertex
 10
443.010168
 20
491.494203
 30
0.0
  0
VERTEX
  5
235
100
AcDbEntity
  8
LAYER_1
 62
     7
100
AcDbVertex
100
AcDb2dVertex
 10
443.010168
 20
481.969203
 30
0.0
  0
VERTEX
  5
236
100
AcDbEntity
  8
LAYER_1
 62
     7
100
AcDbVertex
100
AcDb2dVertex
 10
436.914072
 20
481.969203
 30
0.0
  0
SEQEND
  5
237
100
AcDbEntity
  8
LAYER_1
 62
     7
  0
SPLINE
  5
231
100
AcDbEntity
  8
LAYER_1
 62
     7
100
AcDbSpline
210
0.0
220
0.0
230
1.0
 70
     8
 71
     3
 72
    14
 73
    10
 74
     0
 42
0.00000001
 43
0.00000001
 40
0.0
 40
0.0
 40
0.0
 40
0.0
 40
1.0
 40
1.0
 40
1.0
 40
2.0
 40
2.0
 40
2.0
 40
3.0
 40
3.0
 40
3.0
 40
3.0
 10
430.56407199435762
 20
483.36618923611104
 30
0.0
 10
430.56407199435762
 20
483.36618923611104
 30
0.0
 10
430.56407199435762
 20
490.09721679687493
 30
0.0
 10
430.56407199435762
 20
490.09721679687493
 30
0.0
 10
429.37172444661456
 20
490.09721679687493
 30
0.0
 10
428.40503065321178
 20
488.59033203124994
 30
0.0
 10
428.40503065321178
 20
486.73170301649299
 30
0.0
 10
428.40503065321178
 20
484.87307400173609
 30
0.0
 10
429.37172444661456
 20
483.36618923611104
 30
0.0
 10
430.56407199435762
 20
483.36618923611104
 30
0.0
  0
POLYLINE
  5
22B
100
AcDbEntity
  8
LAYER_1
 62
     7
100
AcDb2dPolyline
 66
     1
 10
0.0
 20
0.0
 30
0.0
 70
     1
  0
VERTEX
  5
22C
100
AcDbEntity
  8
LAYER_1
 62
     7
100
AcDbVertex
100
AcDb2dVertex
 10
435.74274
 20
251.304557
 30
0.0
  0
VERTEX
  5
22D
100
AcDbEntity
  8
LAYER_1
 62
     7
100
AcDbVertex
100
AcDb2dVertex
 10
432.591511
 20
250.917329
 30
0.0
  0
VERTEX
  5
22E
100
AcDbEntity
  8
LAYER_1
 62
     7
100
AcDbVertex
100
AcDb2dVertex
 10
428.821198
 20
281.623809
 30
0.0
  0
VERTEX
  5
22F
100
AcDbEntity
  8
LAYER_1
 62
     7
100
AcDbVertex
100
AcDb2dVertex
 10
431.972599
 20
282.010693
 30
0.0
  0
SEQEND
  5
230
100
AcDbEntity
  8
LAYER_1
 62
     7
  0
POLYLINE
  5
225
100
AcDbEntity
  8
LAYER_1
 62
     7
100
AcDb2dPolyline
 66
     1
 10
0.0
 20
0.0
 30
0.0
 70
     1
  0
VERTEX
  5
226
100
AcDbEntity
  8
LAYER_1
 62
     7
100
AcDbVertex
100
AcDb2dVertex
 10
456.451208
 20
253.251036
 30
0.0
  0
VERTEX
  5
227
100
AcDbEntity
  8
LAYER_1
 62
     7
100
AcDbVertex
100
AcDb2dVertex
 10
453.276208
 20
253.251036
 30
0.0
  0
VERTEX
  5
228
100
AcDbEntity
  8
LAYER_1
 62
     7
100
AcDbVertex
100
AcDb2dVertex
 10
453.276208
 20
284.188338
 30
0.0
  0
VERTEX
  5
229
100
AcDbEntity
  8
LAYER_1
 62
     7
100
AcDbVertex
100
AcDb2dVertex
 10
456.451208
 20
284.188338
 30
0.0
  0
SEQEND
  5
22A
100
AcDbEntity
  8
LAYER_1
 62
     7
  0
POLYLINE
  5
21F
100
AcDbEntity
  8
LAYER_1
 62
     7
100
AcDb2dPolyline
 66
     1
 10
0.0
 20
0.0
 30
0.0
 70
     1
  0
VERTEX
  5
220
100
AcDbEntity
  8
LAYER_1
 62
     7
100
AcDbVertex
100
AcDb2dVertex
 10
477.231852
 20
249.358767
 30
0.0
  0
VERTEX
  5
221
100
AcDbEntity
  8
LAYER_1
 62
     7
100
AcDbVertex
100
AcDb2dVertex
 10
474.064776
 20
249.580287
 30
0.0
  0
VERTEX
  5
222
100
AcDbEntity
  8
LAYER_1
 62
     7
100
AcDbVertex
100
AcDb2dVertex
 10
476.222439
 20
280.442141
 30
0.0
  0
VERTEX
  5
223
100
AcDbEntity
  8
LAYER_1
 62
     7
100
AcDbVertex
100
AcDb2dVertex
 10
479.38986
 20
280.220966
 30
0.0
  0
SEQEND
  5
224
100
AcDbEntity
  8
LAYER_1
 62
     7
  0
POLYLINE
  5
219
100
AcDbEntity
  8
LAYER_1
 62
     7
100
AcDb2dPolyline
 66
     1
 10
0.0
 20
0.0
 30
0.0
 70
     1
  0
VERTEX
  5
21A
100
AcDbEntity
  8
LAYER_1
 62
     7
100
AcDbVertex
100
AcDb2dVertex
 10
494.354666
 20
231.872496
 30
0.0
  0
VERTEX
  5
21B
100
AcDbEntity
  8
LAYER_1
 62
     7
100
AcDbVertex
100
AcDb2dVertex
 10
491.203092
 20
232.25938
 30
0.0
  0
VERTEX
  5
21C
100
AcDbEntity
  8
LAYER_1
 62
     7
100
AcDbVertex
100
AcDb2dVertex
 10
494.973405
 20
262.965861
 30
0.0
  0
VERTEX
  5
21D
100
AcDbEntity
  8
LAYER_1
 62
     7
100
AcDbVertex
100
AcDb2dVertex
 10
498.124978
 20
262.578977
 30
0.0
  0
SEQEND
  5
21E
100
AcDbEntity
  8
LAYER_1
 62
     7
  0
POLYLINE
  5
213
100
AcDbEntity
  8
LAYER_1
 62
     7
100
AcDb2dPolyline
 66
     1
 10
0.0
 20
0.0
 30
0.0
 70
     1
  0
VERTEX
  5
214
100
AcDbEntity
  8
LAYER_1
 62
     7
100
AcDbVertex
100
AcDb2dVertex
 10
274.747054
 20
522.485248
 30
0.0
  0
VERTEX
  5
215
100
AcDbEntity
  8
LAYER_1
 62
     7
100
AcDbVertex
100
AcDb2dVertex
 10
271.997351
 20
520.897748
 30
0.0
  0
VERTEX
  5
216
100
AcDbEntity
  8
LAYER_1
 62
     7
100
AcDbVertex
100
AcDb2dVertex
 10
261.30188
 20
539.422888
 30
0.0
  0
VERTEX
  5
217
100
AcDbEntity
  8
LAYER_1
 62
     7
100
AcDbVertex
100
AcDb2dVertex
 10
264.051583
 20
541.010388
 30
0.0
  0
SEQEND
  5
218
100
AcDbEntity
  8
LAYER_1
 62
     7
  0
POLYLINE
  5
20D
100
AcDbEntity
  8
LAYER_1
 62
     7
100
AcDb2dPolyline
 66
     1
 10
0.0
 20
0.0
 30
0.0
 70
     1
  0
VERTEX
  5
20E
100
AcDbEntity
  8
LAYER_1
 62
     7
100
AcDbVertex
100
AcDb2dVertex
 10
292.181649
 20
485.937781
 30
0.0
  0
VERTEX
  5
20F
100
AcDbEntity
  8
LAYER_1
 62
     7
100
AcDbVertex
100
AcDb2dVertex
 10
289.431946
 20
484.350281
 30
0.0
  0
VERTEX
  5
210
100
AcDbEntity
  8
LAYER_1
 62
     7
100
AcDbVertex
100
AcDb2dVertex
 10
269.24782
 20
519.310248
 30
0.0
  0
VERTEX
  5
211
100
AcDbEntity
  8
LAYER_1
 62
     7
100
AcDbVertex
100
AcDb2dVertex
 10
271.997351
 20
520.897748
 30
0.0
  0
SEQEND
  5
212
100
AcDbEntity
  8
LAYER_1
 62
     7
  0
POLYLINE
  5
207
100
AcDbEntity
  8
LAYER_1
 62
     7
100
AcDb2dPolyline
 66
     1
 10
0.0
 20
0.0
 30
0.0
 70
     1
  0
VERTEX
  5
208
100
AcDbEntity
  8
LAYER_1
 62
     7
100
AcDbVertex
100
AcDb2dVertex
 10
297.680882
 20
489.112781
 30
0.0
  0
VERTEX
  5
209
100
AcDbEntity
  8
LAYER_1
 62
     7
100
AcDbVertex
100
AcDb2dVertex
 10
294.931179
 20
487.525281
 30
0.0
  0
VERTEX
  5
20A
100
AcDbEntity
  8
LAYER_1
 62
     7
100
AcDbVertex
100
AcDb2dVertex
 10
274.747054
 20
522.485248
 30
0.0
  0
VERTEX
  5
20B
100
AcDbEntity
  8
LAYER_1
 62
     7
100
AcDbVertex
100
AcDb2dVertex
 10
277.496757
 20
524.072748
 30
0.0
  0
SEQEND
  5
20C
100
AcDbEntity
  8
LAYER_1
 62
     7
  0
POLYLINE
  5
201
100
AcDbEntity
  8
LAYER_1
 62
     7
100
AcDb2dPolyline
 66
     1
 10
0.0
 20
0.0
 30
0.0
 70
     1
  0
VERTEX
  5
202
100
AcDbEntity
  8
LAYER_1
 62
     7
100
AcDbVertex
100
AcDb2dVertex
 10
261.30188
 20
539.422888
 30
0.0
  0
VERTEX
  5
203
100
AcDbEntity
  8
LAYER_1
 62
     7
100
AcDbVertex
100
AcDb2dVertex
 10
258.552349
 20
537.835388
 30
0.0
  0
VERTEX
  5
204
100
AcDbEntity
  8
LAYER_1
 62
     7
100
AcDbVertex
100
AcDb2dVertex
 10
249.506734
 20
553.502649
 30
0.0
  0
VERTEX
  5
205
100
AcDbEntity
  8
LAYER_1
 62
     7
100
AcDbVertex
100
AcDb2dVertex
 10
252.256437
 20
555.090149
 30
0.0
  0
SEQEND
  5
206
100
AcDbEntity
  8
LAYER_1
 62
     7
  0
POLYLINE
  5
1FB
100
AcDbEntity
  8
LAYER_1
 62
     7
100
AcDb2dPolyline
 66
     1
 10
0.0
 20
0.0
 30
0.0
 70
     1
  0
VERTEX
  5
1FC
100
AcDbEntity
  8
LAYER_1
 62
     7
100
AcDbVertex
100
AcDb2dVertex
 10
266.801286
 20
542.597888
 30
0.0
  0
VERTEX
  5
1FD
100
AcDbEntity
  8
LAYER_1
 62
     7
100
AcDbVertex
100
AcDb2dVertex
 10
264.051583
 20
541.010388
 30
0.0
  0
VERTEX
  5
1FE
100
AcDbEntity
  8
LAYER_1
 62
     7
100
AcDbVertex
100
AcDb2dVertex
 10
255.005968
 20
556.677649
 30
0.0
  0
VERTEX
  5
1FF
100
AcDbEntity
  8
LAYER_1
 62
     7
100
AcDbVertex
100
AcDb2dVertex
 10
257.755671
 20
558.265149
 30
0.0
  0
SEQEND
  5
200
100
AcDbEntity
  8
LAYER_1
 62
     7
  0
INSERT
  5
1EB
100
AcDbEntity
  8
LAYER_1
 62
     7
100
AcDbBlockReference
  2
AI9-BLK38
 10
259.629889
 20
538.149667
 30
0.0
  0
INSERT
  5
1DA
100
AcDbEntity
  8
LAYER_1
 62
     7
100
AcDbBlockReference
  2
AI9-BLK37
 10
270.315714
 20
519.641408
 30
0.0
  0
POLYLINE
  5
1D3
100
AcDbEntity
  8
LAYER_1
 62
     7
100
AcDb2dPolyline
 66
     1
 10
0.0
 20
0.0
 30
0.0
 70
     1
  0
VERTEX
  5
1D4
100
AcDbEntity
  8
LAYER_1
 62
     7
100
AcDbVertex
100
AcDb2dVertex
 10
301.160946
 20
489.435414
 30
0.0
  0
VERTEX
  5
1D5
100
AcDbEntity
  8
LAYER_1
 62
     7
100
AcDbVertex
100
AcDb2dVertex
 10
285.103011
 20
480.16449
 30
0.0
  0
VERTEX
  5
1D6
100
AcDbEntity
  8
LAYER_1
 62
     7
100
AcDbVertex
100
AcDb2dVertex
 10
283.642463
 20
482.694223
 30
0.0
  0
VERTEX
  5
1D7
100
AcDbEntity
  8
LAYER_1
 62
     7
100
AcDbVertex
100
AcDb2dVertex
 10
299.700397
 20
491.965148
 30
0.0
  0
SEQEND
  5
1D8
100
AcDbEntity
  8
LAYER_1
 62
     7
  0
SPLINE
  5
1D2
100
AcDbEntity
  8
LAYER_1
 62
     7
100
AcDbSpline
210
0.0
220
0.0
230
1.0
 70
     8
 71
     3
 72
    14
 73
    10
 74
     0
 42
0.00000001
 43
0.00000001
 40
0.0
 40
0.0
 40
0.0
 40
0.0
 40
1.0
 40
1.0
 40
1.0
 40
2.0
 40
2.0
 40
2.0
 40
3.0
 40
3.0
 40
3.0
 40
3.0
 10
298.74800075954857
 20
493.61500379774299
 30
0.0
 10
298.74800075954857
 20
493.61500379774299
 30
0.0
 10
302.11351453993052
 20
487.78572998046872
 30
0.0
 10
302.11351453993052
 20
487.78572998046872
 30
0.0
 10
303.14600965711804
 20
488.38190375434021
 30
0.0
 10
303.22972547743052
 20
490.1702528211805
 30
0.0
 10
302.30041097005204
 20
491.77980143229161
 30
0.0
 10
301.37109646267356
 20
493.38952229817704
 30
0.0
 10
299.7804958767361
 20
494.21117757161454
 30
0.0
 10
298.74800075954857
 20
493.61500379774299
 30
0.0
  0
POLYLINE
  5
1CC
100
AcDbEntity
  8
LAYER_1
 62
     7
100
AcDb2dPolyline
 66
     1
 10
0.0
 20
0.0
 30
0.0
 70
     1
  0
VERTEX
  5
1CD
100
AcDbEntity
  8
LAYER_1
 62
     7
100
AcDbVertex
100
AcDb2dVertex
 10
298.106179
 20
482.026047
 30
0.0
  0
VERTEX
  5
1CE
100
AcDbEntity
  8
LAYER_1
 62
     7
100
AcDbVertex
100
AcDb2dVertex
 10
295.356649
 20
480.438547
 30
0.0
  0
VERTEX
  5
1CF
100
AcDbEntity
  8
LAYER_1
 62
     7
100
AcDbVertex
100
AcDb2dVertex
 10
289.006649
 20
491.437014
 30
0.0
  0
VERTEX
  5
1D0
100
AcDbEntity
  8
LAYER_1
 62
     7
100
AcDbVertex
100
AcDb2dVertex
 10
291.756179
 20
493.024514
 30
0.0
  0
SEQEND
  5
1D1
100
AcDbEntity
  8
LAYER_1
 62
     7
  0
POLYLINE
  5
1C6
100
AcDbEntity
  8
LAYER_1
 62
     7
100
AcDb2dPolyline
 66
     1
 10
0.0
 20
0.0
 30
0.0
 70
     1
  0
VERTEX
  5
1C7
100
AcDbEntity
  8
LAYER_1
 62
     7
100
AcDbVertex
100
AcDb2dVertex
 10
303.605585
 20
485.201047
 30
0.0
  0
VERTEX
  5
1C8
100
AcDbEntity
  8
LAYER_1
 62
     7
100
AcDbVertex
100
AcDb2dVertex
 10
300.855882
 20
483.613547
 30
0.0
  0
VERTEX
  5
1C9
100
AcDbEntity
  8
LAYER_1
 62
     7
100
AcDbVertex
100
AcDb2dVertex
 10
294.505882
 20
494.612014
 30
0.0
  0
VERTEX
  5
1CA
100
AcDbEntity
  8
LAYER_1
 62
     7
100
AcDbVertex
100
AcDb2dVertex
 10
297.255585
 20
496.199514
 30
0.0
  0
SEQEND
  5
1CB
100
AcDbEntity
  8
LAYER_1
 62
     7
  0
POLYLINE
  5
1C0
100
AcDbEntity
  8
LAYER_1
 62
     7
100
AcDb2dPolyline
 66
     1
 10
0.0
 20
0.0
 30
0.0
 70
     1
  0
VERTEX
  5
1C1
100
AcDbEntity
  8
LAYER_1
 62
     7
100
AcDbVertex
100
AcDb2dVertex
 10
292.496186
 20
479.042767
 30
0.0
  0
VERTEX
  5
1C2
100
AcDbEntity
  8
LAYER_1
 62
     7
100
AcDbVertex
100
AcDb2dVertex
 10
289.746655
 20
477.455267
 30
0.0
  0
VERTEX
  5
1C3
100
AcDbEntity
  8
LAYER_1
 62
     7
100
AcDbVertex
100
AcDb2dVertex
 10
283.396655
 20
488.453906
 30
0.0
  0
VERTEX
  5
1C4
100
AcDbEntity
  8
LAYER_1
 62
     7
100
AcDbVertex
100
AcDb2dVertex
 10
286.146186
 20
490.041406
 30
0.0
  0
SEQEND
  5
1C5
100
AcDbEntity
  8
LAYER_1
 62
     7
  0
CIRCLE
  5
1BF
100
AcDbEntity
  8
LAYER_1
 62
     7
100
AcDbCircle
 10
293.556586
 20
486.731703
 30
0.0
 40
1.5875
  0
CIRCLE
  5
1BE
100
AcDbEntity
  8
LAYER_1
 62
     7
100
AcDbCircle
 10
291.428034
 20
412.680754
 30
0.0
 40
1.5875
  0
CIRCLE
  5
1BD
100
AcDbEntity
  8
LAYER_1
 62
     7
100
AcDbCircle
 10
291.42812
 20
412.680754
 30
0.0
 40
10.160017
  0
CIRCLE
  5
1BC
100
AcDbEntity
  8
LAYER_1
 62
     7
100
AcDbCircle
 10
293.5565
 20
486.731531
 30
0.0
 40
10.160019
  0
POLYLINE
  5
1B6
100
AcDbEntity
  8
LAYER_1
 62
     7
100
AcDb2dPolyline
 66
     1
 10
0.0
 20
0.0
 30
0.0
 70
     1
  0
VERTEX
  5
1B7
100
AcDbEntity
  8
LAYER_1
 62
     7
100
AcDbVertex
100
AcDb2dVertex
 10
196.313599
 20
527.100126
 30
0.0
  0
VERTEX
  5
1B8
100
AcDbEntity
  8
LAYER_1
 62
     7
100
AcDbVertex
100
AcDb2dVertex
 10
193.138599
 20
527.100126
 30
0.0
  0
VERTEX
  5
1B9
100
AcDbEntity
  8
LAYER_1
 62
     7
100
AcDbVertex
100
AcDb2dVertex
 10
193.138599
 20
548.491069
 30
0.0
  0
VERTEX
  5
1BA
100
AcDbEntity
  8
LAYER_1
 62
     7
100
AcDbVertex
100
AcDb2dVertex
 10
196.313599
 20
548.491069
 30
0.0
  0
SEQEND
  5
1BB
100
AcDbEntity
  8
LAYER_1
 62
     7
  0
POLYLINE
  5
1B0
100
AcDbEntity
  8
LAYER_1
 62
     7
100
AcDb2dPolyline
 66
     1
 10
0.0
 20
0.0
 30
0.0
 70
     1
  0
VERTEX
  5
1B1
100
AcDbEntity
  8
LAYER_1
 62
     7
100
AcDbVertex
100
AcDb2dVertex
 10
193.138599
 20
486.731703
 30
0.0
  0
VERTEX
  5
1B2
100
AcDbEntity
  8
LAYER_1
 62
     7
100
AcDbVertex
100
AcDb2dVertex
 10
189.963599
 20
486.731703
 30
0.0
  0
VERTEX
  5
1B3
100
AcDbEntity
  8
LAYER_1
 62
     7
100
AcDbVertex
100
AcDb2dVertex
 10
189.963599
 20
527.100126
 30
0.0
  0
VERTEX
  5
1B4
100
AcDbEntity
  8
LAYER_1
 62
     7
100
AcDbVertex
100
AcDb2dVertex
 10
193.138599
 20
527.100126
 30
0.0
  0
SEQEND
  5
1B5
100
AcDbEntity
  8
LAYER_1
 62
     7
  0
POLYLINE
  5
1AA
100
AcDbEntity
  8
LAYER_1
 62
     7
100
AcDb2dPolyline
 66
     1
 10
0.0
 20
0.0
 30
0.0
 70
     1
  0
VERTEX
  5
1AB
100
AcDbEntity
  8
LAYER_1
 62
     7
100
AcDbVertex
100
AcDb2dVertex
 10
199.488599
 20
486.731703
 30
0.0
  0
VERTEX
  5
1AC
100
AcDbEntity
  8
LAYER_1
 62
     7
100
AcDbVertex
100
AcDb2dVertex
 10
196.313599
 20
486.731703
 30
0.0
  0
VERTEX
  5
1AD
100
AcDbEntity
  8
LAYER_1
 62
     7
100
AcDbVertex
100
AcDb2dVertex
 10
196.313599
 20
527.100126
 30
0.0
  0
VERTEX
  5
1AE
100
AcDbEntity
  8
LAYER_1
 62
     7
100
AcDbVertex
100
AcDb2dVertex
 10
199.488599
 20
527.100126
 30
0.0
  0
SEQEND
  5
1AF
100
AcDbEntity
  8
LAYER_1
 62
     7
  0
POLYLINE
  5
1A4
100
AcDbEntity
  8
LAYER_1
 62
     7
100
AcDb2dPolyline
 66
     1
 10
0.0
 20
0.0
 30
0.0
 70
     1
  0
VERTEX
  5
1A5
100
AcDbEntity
  8
LAYER_1
 62
     7
100
AcDbVertex
100
AcDb2dVertex
 10
193.138599
 20
548.491069
 30
0.0
  0
VERTEX
  5
1A6
100
AcDbEntity
  8
LAYER_1
 62
     7
100
AcDbVertex
100
AcDb2dVertex
 10
189.963599
 20
548.491069
 30
0.0
  0
VERTEX
  5
1A7
100
AcDbEntity
  8
LAYER_1
 62
     7
100
AcDbVertex
100
AcDb2dVertex
 10
189.963599
 20
566.582126
 30
0.0
  0
VERTEX
  5
1A8
100
AcDbEntity
  8
LAYER_1
 62
     7
100
AcDbVertex
100
AcDb2dVertex
 10
193.138599
 20
566.582126
 30
0.0
  0
SEQEND
  5
1A9
100
AcDbEntity
  8
LAYER_1
 62
     7
  0
POLYLINE
  5
19E
100
AcDbEntity
  8
LAYER_1
 62
     7
100
AcDb2dPolyline
 66
     1
 10
0.0
 20
0.0
 30
0.0
 70
     1
  0
VERTEX
  5
19F
100
AcDbEntity
  8
LAYER_1
 62
     7
100
AcDbVertex
100
AcDb2dVertex
 10
199.488599
 20
548.491069
 30
0.0
  0
VERTEX
  5
1A0
100
AcDbEntity
  8
LAYER_1
 62
     7
100
AcDbVertex
100
AcDb2dVertex
 10
196.313599
 20
548.491069
 30
0.0
  0
VERTEX
  5
1A1
100
AcDbEntity
  8
LAYER_1
 62
     7
100
AcDbVertex
100
AcDb2dVertex
 10
196.313599
 20
566.582126
 30
0.0
  0
VERTEX
  5
1A2
100
AcDbEntity
  8
LAYER_1
 62
     7
100
AcDbVertex
100
AcDb2dVertex
 10
199.488599
 20
566.582126
 30
0.0
  0
SEQEND
  5
1A3
100
AcDbEntity
  8
LAYER_1
 62
     7
  0
INSERT
  5
18E
100
AcDbEntity
  8
LAYER_1
 62
     7
100
AcDbBlockReference
  2
AI9-BLK36
 10
191.296937
 20
548.491069
 30
0.0
  0
INSERT
  5
17D
100
AcDbEntity
  8
LAYER_1
 62
     7
100
AcDbBlockReference
  2
AI9-BLK35
 10
191.296937
 20
527.119591
 30
0.0
  0
POLYLINE
  5
176
100
AcDbEntity
  8
LAYER_1
 62
     7
100
AcDb2dPolyline
 66
     1
 10
0.0
 20
0.0
 30
0.0
 70
     1
  0
VERTEX
  5
177
100
AcDbEntity
  8
LAYER_1
 62
     7
100
AcDbVertex
100
AcDb2dVertex
 10
202.663771
 20
485.271155
 30
0.0
  0
VERTEX
  5
178
100
AcDbEntity
  8
LAYER_1
 62
     7
100
AcDbVertex
100
AcDb2dVertex
 10
184.12175
 20
485.271155
 30
0.0
  0
VERTEX
  5
179
100
AcDbEntity
  8
LAYER_1
 62
     7
100
AcDbVertex
100
AcDb2dVertex
 10
184.12175
 20
488.192251
 30
0.0
  0
VERTEX
  5
17A
100
AcDbEntity
  8
LAYER_1
 62
     7
100
AcDbVertex
100
AcDb2dVertex
 10
202.663771
 20
488.192251
 30
0.0
  0
SEQEND
  5
17B
100
AcDbEntity
  8
LAYER_1
 62
     7
  0
SPLINE
  5
175
100
AcDbEntity
  8
LAYER_1
 62
     7
100
AcDbSpline
210
0.0
220
0.0
230
1.0
 70
     8
 71
     3
 72
    14
 73
    10
 74
     0
 42
0.00000001
 43
0.00000001
 40
0.0
 40
0.0
 40
0.0
 40
0.0
 40
1.0
 40
1.0
 40
1.0
 40
2.0
 40
2.0
 40
2.0
 40
3.0
 40
3.0
 40
3.0
 40
3.0
 10
202.66377088758679
 20
490.09721679687493
 30
0.0
 10
202.66377088758679
 20
490.09721679687493
 30
0.0
 10
202.66377088758679
 20
483.36618923611104
 30
0.0
 10
202.66377088758679
 20
483.36618923611104
 30
0.0
 10
203.85611843532985
 20
483.36618923611104
 30
0.0
 10
204.82281222873263
 20
484.87307400173609
 30
0.0
 10
204.82281222873263
 20
486.73170301649299
 30
0.0
 10
204.82281222873263
 20
488.59033203124994
 30
0.0
 10
203.85611843532985
 20
490.09721679687493
 30
0.0
 10
202.66377088758679
 20
490.09721679687493
 30
0.0
  0
POLYLINE
  5
16F
100
AcDbEntity
  8
LAYER_1
 62
     7
100
AcDb2dPolyline
 66
     1
 10
0.0
 20
0.0
 30
0.0
 70
     1
  0
VERTEX
  5
170
100
AcDbEntity
  8
LAYER_1
 62
     7
100
AcDbVertex
100
AcDb2dVertex
 10
196.313599
 20
480.381703
 30
0.0
  0
VERTEX
  5
171
100
AcDbEntity
  8
LAYER_1
 62
     7
100
AcDbVertex
100
AcDb2dVertex
 10
193.138599
 20
480.381703
 30
0.0
  0
VERTEX
  5
172
100
AcDbEntity
  8
LAYER_1
 62
     7
100
AcDbVertex
100
AcDb2dVertex
 10
193.138599
 20
493.081703
 30
0.0
  0
VERTEX
  5
173
100
AcDbEntity
  8
LAYER_1
 62
     7
100
AcDbVertex
100
AcDb2dVertex
 10
196.313599
 20
493.081703
 30
0.0
  0
SEQEND
  5
174
100
AcDbEntity
  8
LAYER_1
 62
     7
  0
POLYLINE
  5
169
100
AcDbEntity
  8
LAYER_1
 62
     7
100
AcDb2dPolyline
 66
     1
 10
0.0
 20
0.0
 30
0.0
 70
     1
  0
VERTEX
  5
16A
100
AcDbEntity
  8
LAYER_1
 62
     7
100
AcDbVertex
100
AcDb2dVertex
 10
202.663599
 20
480.381703
 30
0.0
  0
VERTEX
  5
16B
100
AcDbEntity
  8
LAYER_1
 62
     7
100
AcDbVertex
100
AcDb2dVertex
 10
199.488599
 20
480.381703
 30
0.0
  0
VERTEX
  5
16C
100
AcDbEntity
  8
LAYER_1
 62
     7
100
AcDbVertex
100
AcDb2dVertex
 10
199.488599
 20
493.081703
 30
0.0
  0
VERTEX
  5
16D
100
AcDbEntity
  8
LAYER_1
 62
     7
100
AcDbVertex
100
AcDb2dVertex
 10
202.663599
 20
493.081703
 30
0.0
  0
SEQEND
  5
16E
100
AcDbEntity
  8
LAYER_1
 62
     7
  0
POLYLINE
  5
163
100
AcDbEntity
  8
LAYER_1
 62
     7
100
AcDb2dPolyline
 66
     1
 10
0.0
 20
0.0
 30
0.0
 70
     1
  0
VERTEX
  5
164
100
AcDbEntity
  8
LAYER_1
 62
     7
100
AcDbVertex
100
AcDb2dVertex
 10
189.963599
 20
480.603223
 30
0.0
  0
VERTEX
  5
165
100
AcDbEntity
  8
LAYER_1
 62
     7
100
AcDbVertex
100
AcDb2dVertex
 10
186.788599
 20
480.603223
 30
0.0
  0
VERTEX
  5
166
100
AcDbEntity
  8
LAYER_1
 62
     7
100
AcDbVertex
100
AcDb2dVertex
 10
186.788599
 20
493.303223
 30
0.0
  0
VERTEX
  5
167
100
AcDbEntity
  8
LAYER_1
 62
     7
100
AcDbVertex
100
AcDb2dVertex
 10
189.963599
 20
493.303223
 30
0.0
  0
SEQEND
  5
168
100
AcDbEntity
  8
LAYER_1
 62
     7
  0
CIRCLE
  5
162
100
AcDbEntity
  8
LAYER_1
 62
     7
100
AcDbCircle
 10
194.726185
 20
486.731703
 30
0.0
 40
10.160017
  0
SPLINE
  5
161
100
AcDbEntity
  8
LAYER_1
 62
     7
100
AcDbSpline
210
0.0
220
0.0
230
1.0
 70
     8
 71
     3
 72
    20
 73
    16
 74
     0
 42
0.00000001
 43
0.00000001
 40
0.0
 40
0.0
 40
0.0
 40
0.0
 40
1.0
 40
1.0
 40
1.0
 40
2.0
 40
2.0
 40
2.0
 40
3.0
 40
3.0
 40
3.0
 40
4.0
 40
4.0
 40
4.0
 40
5.0
 40
5.0
 40
5.0
 40
5.0
 10
293.55658637152777
 20
496.8918063693576
 30
0.0
 10
287.94538709852429
 20
496.8918063693576
 30
0.0
 10
283.39665527343749
 20
492.34307454427079
 30
0.0
 10
283.39665527343749
 20
486.73170301649299
 30
0.0
 10
283.39665527343749
 20
481.12067599826383
 30
0.0
 10
287.94538709852429
 20
476.57177191840276
 30
0.0
 10
293.55658637152777
 20
476.57177191840276
 30
0.0
 10
293.55658637152777
 20
476.57177191840276
 30
0.0
 10
307.68233913845484
 20
476.57177191840276
 30
0.0
 10
307.68233913845484
 20
476.57177191840276
 30
0.0
 10
307.68233913845484
 20
476.57177191840276
 30
0.0
 10
307.68233913845484
 20
496.8918063693576
 30
0.0
 10
307.68233913845484
 20
496.8918063693576
 30
0.0
 10
307.68233913845484
 20
496.8918063693576
 30
0.0
 10
293.55658637152777
 20
496.8918063693576
 30
0.0
 10
293.55658637152777
 20
496.8918063693576
 30
0.0
  0
CIRCLE
  5
160
100
AcDbEntity
  8
LAYER_1
 62
     7
100
AcDbCircle
 10
315.797089
 20
412.680754
 30
0.0
 40
1.5875
  0
SPLINE
  5
15F
100
AcDbEntity
  8
LAYER_1
 62
     7
100
AcDbSpline
210
0.0
220
0.0
230
1.0
 70
     8
 71
     3
 72
    20
 73
    16
 74
     0
 42
0.00000001
 43
0.00000001
 40
0.0
 40
0.0
 40
0.0
 40
0.0
 40
1.0
 40
1.0
 40
1.0
 40
2.0
 40
2.0
 40
2.0
 40
3.0
 40
3.0
 40
3.0
 40
4.0
 40
4.0
 40
4.0
 40
5.0
 40
5.0
 40
5.0
 40
5.0
 10
315.79708930121524
 20
422.8406846788194
 30
0.0
 10
310.18589002821176
 20
422.8406846788194
 30
0.0
 10
305.63715820312495
 20
418.29212510850692
 30
0.0
 10
305.63715820312495
 20
412.68075358072912
 30
0.0
 10
305.63715820312495
 20
407.06938205295137
 30
0.0
 10
310.18589002821176
 20
402.52047797309024
 30
0.0
 10
315.79708930121524
 20
402.52047797309024
 30
0.0
 10
315.79708930121524
 20
402.52047797309024
 30
0.0
 10
329.92284206814236
 20
402.52047797309024
 30
0.0
 10
329.92284206814236
 20
402.52047797309024
 30
0.0
 10
329.92284206814236
 20
402.52047797309024
 30
0.0
 10
329.92284206814236
 20
422.8406846788194
 30
0.0
 10
329.92284206814236
 20
422.8406846788194
 30
0.0
 10
329.92284206814236
 20
422.8406846788194
 30
0.0
 10
315.79708930121524
 20
422.8406846788194
 30
0.0
 10
315.79708930121524
 20
422.8406846788194
 30
0.0
  0
POLYLINE
  5
159
100
AcDbEntity
  8
LAYER_1
 62
     7
100
AcDb2dPolyline
 66
     1
 10
0.0
 20
0.0
 30
0.0
 70
     1
  0
VERTEX
  5
15A
100
AcDbEntity
  8
LAYER_1
 62
     7
100
AcDbVertex
100
AcDb2dVertex
 10
409.240826
 20
234.958957
 30
0.0
  0
VERTEX
  5
15B
100
AcDbEntity
  8
LAYER_1
 62
     7
100
AcDbVertex
100
AcDb2dVertex
 10
400.100987
 20
230.522363
 30
0.0
  0
VERTEX
  5
15C
100
AcDbEntity
  8
LAYER_1
 62
     7
100
AcDbVertex
100
AcDb2dVertex
 10
385.871365
 20
259.839437
 30
0.0
  0
VERTEX
  5
15D
100
AcDbEntity
  8
LAYER_1
 62
     7
100
AcDbVertex
100
AcDb2dVertex
 10
395.011548
 20
264.276031
 30
0.0
  0
SEQEND
  5
15E
100
AcDbEntity
  8
LAYER_1
 62
     7
  0
POLYLINE
  5
153
100
AcDbEntity
  8
LAYER_1
 62
     7
100
AcDb2dPolyline
 66
     1
 10
0.0
 20
0.0
 30
0.0
 70
     1
  0
VERTEX
  5
154
100
AcDbEntity
  8
LAYER_1
 62
     7
100
AcDbVertex
100
AcDb2dVertex
 10
434.152311
 20
209.822852
 30
0.0
  0
VERTEX
  5
155
100
AcDbEntity
  8
LAYER_1
 62
     7
100
AcDbVertex
100
AcDb2dVertex
 10
426.883849
 20
202.723888
 30
0.0
  0
VERTEX
  5
156
100
AcDbEntity
  8
LAYER_1
 62
     7
100
AcDbVertex
100
AcDb2dVertex
 10
401.036675
 20
229.191178
 30
0.0
  0
VERTEX
  5
157
100
AcDbEntity
  8
LAYER_1
 62
     7
100
AcDbVertex
100
AcDb2dVertex
 10
408.305138
 20
236.290142
 30
0.0
  0
SEQEND
  5
158
100
AcDbEntity
  8
LAYER_1
 62
     7
  0
CIRCLE
  5
152
100
AcDbEntity
  8
LAYER_1
 62
     7
100
AcDbCircle
 10
390.441284
 20
262.057734
 30
0.0
 40
5.080195
  0
CIRCLE
  5
151
100
AcDbEntity
  8
LAYER_1
 62
     7
100
AcDbCircle
 10
390.441456
 20
262.057906
 30
0.0
 40
1.587562
  0
CIRCLE
  5
150
100
AcDbEntity
  8
LAYER_1
 62
     7
100
AcDbCircle
 10
404.670907
 20
232.740488
 30
0.0
 40
1.587564
  0
CIRCLE
  5
14F
100
AcDbEntity
  8
LAYER_1
 62
     7
100
AcDbCircle
 10
430.51808
 20
206.27337
 30
0.0
 40
1.587418
  0
CIRCLE
  5
14E
100
AcDbEntity
  8
LAYER_1
 62
     7
100
AcDbCircle
 10
404.670907
 20
232.74066
 30
0.0
 40
5.079862
  0
CIRCLE
  5
14D
100
AcDbEntity
  8
LAYER_1
 62
     7
100
AcDbCircle
 10
430.51808
 20
206.27337
 30
0.0
 40
5.080006
  0
SPLINE
  5
14C
100
AcDbEntity
  8
LAYER_1
 62
     7
100
AcDbSpline
210
0.0
220
0.0
230
1.0
 70
     8
 71
     3
 72
    20
 73
    16
 74
     0
 42
0.00000001
 43
0.00000001
 40
0.0
 40
0.0
 40
0.0
 40
0.0
 40
1.0
 40
1.0
 40
1.0
 40
2.0
 40
2.0
 40
2.0
 40
3.0
 40
3.0
 40
3.0
 40
4.0
 40
4.0
 40
4.0
 40
5.0
 40
5.0
 40
5.0
 40
5.0
 10
388.76111111111106
 20
279.09166395399302
 30
0.0
 10
385.96920572916662
 20
278.81640082465276
 30
0.0
 10
383.92970920138885
 20
276.32938639322913
 30
0.0
 10
384.20462782118051
 20
273.53748101128468
 30
0.0
 10
384.20462782118051
 20
273.53748101128468
 30
0.0
 10
385.3856065538194
 20
261.55922851562497
 30
0.0
 10
385.3856065538194
 20
261.55922851562497
 30
0.0
 10
385.3856065538194
 20
261.55922851562497
 30
0.0
 10
395.49696180555554
 20
262.55623914930555
 30
0.0
 10
395.49696180555554
 20
262.55623914930555
 30
0.0
 10
395.49696180555554
 20
262.55623914930555
 30
0.0
 10
394.3152940538194
 20
274.53483615451387
 30
0.0
 10
394.3152940538194
 20
274.53483615451387
 30
0.0
 10
394.04037543402774
 20
277.32674153645831
 30
0.0
 10
391.55336100260411
 20
279.36692708333328
 30
0.0
 10
388.76111111111106
 20
279.09166395399302
 30
0.0
  0
CIRCLE
  5
14B
100
AcDbEntity
  8
LAYER_1
 62
     7
100
AcDbCircle
 10
430.518424
 20
206.27337
 30
0.0
 40
6.35
  0
POLYLINE
  5
145
100
AcDbEntity
  8
LAYER_1
 62
     7
100
AcDb2dPolyline
 66
     1
 10
0.0
 20
0.0
 30
0.0
 70
     1
  0
VERTEX
  5
146
100
AcDbEntity
  8
LAYER_1
 62
     7
100
AcDbVertex
100
AcDb2dVertex
 10
440.048248
 20
199.92337
 30
0.0
  0
VERTEX
  5
147
100
AcDbEntity
  8
LAYER_1
 62
     7
100
AcDbVertex
100
AcDb2dVertex
 10
430.523248
 20
199.92337
 30
0.0
  0
VERTEX
  5
148
100
AcDbEntity
  8
LAYER_1
 62
     7
100
AcDbVertex
100
AcDb2dVertex
 10
430.523248
 20
212.62337
 30
0.0
  0
VERTEX
  5
149
100
AcDbEntity
  8
LAYER_1
 62
     7
100
AcDbVertex
100
AcDb2dVertex
 10
440.048248
 20
212.62337
 30
0.0
  0
SEQEND
  5
14A
100
AcDbEntity
  8
LAYER_1
 62
     7
  0
POLYLINE
  5
13F
100
AcDbEntity
  8
LAYER_1
 62
     7
100
AcDb2dPolyline
 66
     1
 10
0.0
 20
0.0
 30
0.0
 70
     1
  0
VERTEX
  5
140
100
AcDbEntity
  8
LAYER_1
 62
     7
100
AcDbVertex
100
AcDb2dVertex
 10
446.398248
 20
196.113439
 30
0.0
  0
VERTEX
  5
141
100
AcDbEntity
  8
LAYER_1
 62
     7
100
AcDbVertex
100
AcDb2dVertex
 10
443.223248
 20
196.113439
 30
0.0
  0
VERTEX
  5
142
100
AcDbEntity
  8
LAYER_1
 62
     7
100
AcDbVertex
100
AcDb2dVertex
 10
443.223248
 20
216.433301
 30
0.0
  0
VERTEX
  5
143
100
AcDbEntity
  8
LAYER_1
 62
     7
100
AcDbVertex
100
AcDb2dVertex
 10
446.398248
 20
216.433301
 30
0.0
  0
SEQEND
  5
144
100
AcDbEntity
  8
LAYER_1
 62
     7
  0
POLYLINE
  5
139
100
AcDbEntity
  8
LAYER_1
 62
     7
100
AcDb2dPolyline
 66
     1
 10
0.0
 20
0.0
 30
0.0
 70
     1
  0
VERTEX
  5
13A
100
AcDbEntity
  8
LAYER_1
 62
     7
100
AcDbVertex
100
AcDb2dVertex
 10
443.223248
 20
196.113439
 30
0.0
  0
VERTEX
  5
13B
100
AcDbEntity
  8
LAYER_1
 62
     7
100
AcDbVertex
100
AcDb2dVertex
 10
440.048248
 20
196.113439
 30
0.0
  0
VERTEX
  5
13C
100
AcDbEntity
  8
LAYER_1
 62
     7
100
AcDbVertex
100
AcDb2dVertex
 10
440.048248
 20
216.433301
 30
0.0
  0
VERTEX
  5
13D
100
AcDbEntity
  8
LAYER_1
 62
     7
100
AcDbVertex
100
AcDb2dVertex
 10
443.223248
 20
216.433301
 30
0.0
  0
SEQEND
  5
13E
100
AcDbEntity
  8
LAYER_1
 62
     7
  0
POLYLINE
  5
133
100
AcDbEntity
  8
LAYER_1
 62
     7
100
AcDb2dPolyline
 66
     1
 10
0.0
 20
0.0
 30
0.0
 70
     1
  0
VERTEX
  5
134
100
AcDbEntity
  8
LAYER_1
 62
     7
100
AcDbVertex
100
AcDb2dVertex
 10
440.048248
 20
207.733746
 30
0.0
  0
VERTEX
  5
135
100
AcDbEntity
  8
LAYER_1
 62
     7
100
AcDbVertex
100
AcDb2dVertex
 10
458.590441
 20
207.733746
 30
0.0
  0
VERTEX
  5
136
100
AcDbEntity
  8
LAYER_1
 62
     7
100
AcDbVertex
100
AcDb2dVertex
 10
458.590441
 20
204.812994
 30
0.0
  0
VERTEX
  5
137
100
AcDbEntity
  8
LAYER_1
 62
     7
100
AcDbVertex
100
AcDb2dVertex
 10
440.048248
 20
204.812994
 30
0.0
  0
SEQEND
  5
138
100
AcDbEntity
  8
LAYER_1
 62
     7
  0
POLYLINE
  5
12D
100
AcDbEntity
  8
LAYER_1
 62
     7
100
AcDb2dPolyline
 66
     1
 10
0.0
 20
0.0
 30
0.0
 70
     1
  0
VERTEX
  5
12E
100
AcDbEntity
  8
LAYER_1
 62
     7
100
AcDbVertex
100
AcDb2dVertex
 10
446.398248
 20
211.03587
 30
0.0
  0
VERTEX
  5
12F
100
AcDbEntity
  8
LAYER_1
 62
     7
100
AcDbVertex
100
AcDb2dVertex
 10
452.494689
 20
211.03587
 30
0.0
  0
VERTEX
  5
130
100
AcDbEntity
  8
LAYER_1
 62
     7
100
AcDbVertex
100
AcDb2dVertex
 10
452.494689
 20
201.51087
 30
0.0
  0
VERTEX
  5
131
100
AcDbEntity
  8
LAYER_1
 62
     7
100
AcDbVertex
100
AcDb2dVertex
 10
446.398248
 20
201.51087
 30
0.0
  0
SEQEND
  5
132
100
AcDbEntity
  8
LAYER_1
 62
     7
  0
SPLINE
  5
12C
100
AcDbEntity
  8
LAYER_1
 62
     7
100
AcDbSpline
210
0.0
220
0.0
230
1.0
 70
     8
 71
     3
 72
    14
 73
    10
 74
     0
 42
0.00000001
 43
0.00000001
 40
0.0
 40
0.0
 40
0.0
 40
0.0
 40
1.0
 40
1.0
 40
1.0
 40
2.0
 40
2.0
 40
2.0
 40
3.0
 40
3.0
 40
3.0
 40
3.0
 10
440.04824761284721
 20
202.90785590277775
 30
0.0
 10
440.04824761284721
 20
202.90785590277775
 30
0.0
 10
440.04824761284721
 20
209.63888346354165
 30
0.0
 10
440.04824761284721
 20
209.63888346354165
 30
0.0
 10
438.85624457465275
 20
209.63888346354165
 30
0.0
 10
437.88955078124997
 20
208.13199869791666
 30
0.0
 10
437.88955078124997
 20
206.2733696831597
 30
0.0
 10
437.88955078124997
 20
204.41474066840277
 30
0.0
 10
438.85624457465275
 20
202.90785590277775
 30
0.0
 10
440.04824761284721
 20
202.90785590277775
 30
0.0
  0
POLYLINE
  5
126
100
AcDbEntity
  8
LAYER_1
 62
     7
100
AcDb2dPolyline
 66
     1
 10
0.0
 20
0.0
 30
0.0
 70
     1
  0
VERTEX
  5
127
100
AcDbEntity
  8
LAYER_1
 62
     7
100
AcDbVertex
100
AcDb2dVertex
 10
563.339947
 20
251.315237
 30
0.0
  0
VERTEX
  5
128
100
AcDbEntity
  8
LAYER_1
 62
     7
100
AcDbVertex
100
AcDb2dVertex
 10
560.189062
 20
250.928008
 30
0.0
  0
VERTEX
  5
129
100
AcDbEntity
  8
LAYER_1
 62
     7
100
AcDbVertex
100
AcDb2dVertex
 10
556.41875
 20
281.634489
 30
0.0
  0
VERTEX
  5
12A
100
AcDbEntity
  8
LAYER_1
 62
     7
100
AcDbVertex
100
AcDb2dVertex
 10
559.569979
 20
282.021373
 30
0.0
  0
SEQEND
  5
12B
100
AcDbEntity
  8
LAYER_1
 62
     7
  0
POLYLINE
  5
120
100
AcDbEntity
  8
LAYER_1
 62
     7
100
AcDb2dPolyline
 66
     1
 10
0.0
 20
0.0
 30
0.0
 70
     1
  0
VERTEX
  5
121
100
AcDbEntity
  8
LAYER_1
 62
     7
100
AcDbVertex
100
AcDb2dVertex
 10
584.048416
 20
253.261716
 30
0.0
  0
VERTEX
  5
122
100
AcDbEntity
  8
LAYER_1
 62
     7
100
AcDbVertex
100
AcDb2dVertex
 10
580.873416
 20
253.261716
 30
0.0
  0
VERTEX
  5
123
100
AcDbEntity
  8
LAYER_1
 62
     7
100
AcDbVertex
100
AcDb2dVertex
 10
580.873416
 20
284.199018
 30
0.0
  0
VERTEX
  5
124
100
AcDbEntity
  8
LAYER_1
 62
     7
100
AcDbVertex
100
AcDb2dVertex
 10
584.048416
 20
284.199018
 30
0.0
  0
SEQEND
  5
125
100
AcDbEntity
  8
LAYER_1
 62
     7
  0
POLYLINE
  5
11A
100
AcDbEntity
  8
LAYER_1
 62
     7
100
AcDb2dPolyline
 66
     1
 10
0.0
 20
0.0
 30
0.0
 70
     1
  0
VERTEX
  5
11B
100
AcDbEntity
  8
LAYER_1
 62
     7
100
AcDbVertex
100
AcDb2dVertex
 10
604.829232
 20
249.369447
 30
0.0
  0
VERTEX
  5
11C
100
AcDbEntity
  8
LAYER_1
 62
     7
100
AcDbVertex
100
AcDb2dVertex
 10
601.6625
 20
249.590967
 30
0.0
  0
VERTEX
  5
11D
100
AcDbEntity
  8
LAYER_1
 62
     7
100
AcDbVertex
100
AcDb2dVertex
 10
603.819819
 20
280.452821
 30
0.0
  0
VERTEX
  5
11E
100
AcDbEntity
  8
LAYER_1
 62
     7
100
AcDbVertex
100
AcDb2dVertex
 10
606.98724
 20
280.231646
 30
0.0
  0
SEQEND
  5
11F
100
AcDbEntity
  8
LAYER_1
 62
     7
  0
POLYLINE
  5
114
100
AcDbEntity
  8
LAYER_1
 62
     7
100
AcDb2dPolyline
 66
     1
 10
0.0
 20
0.0
 30
0.0
 70
     1
  0
VERTEX
  5
115
100
AcDbEntity
  8
LAYER_1
 62
     7
100
AcDbVertex
100
AcDb2dVertex
 10
621.952045
 20
231.883176
 30
0.0
  0
VERTEX
  5
116
100
AcDbEntity
  8
LAYER_1
 62
     7
100
AcDbVertex
100
AcDb2dVertex
 10
618.800472
 20
232.27006
 30
0.0
  0
VERTEX
  5
117
100
AcDbEntity
  8
LAYER_1
 62
     7
100
AcDbVertex
100
AcDb2dVertex
 10
622.570785
 20
262.976541
 30
0.0
  0
VERTEX
  5
118
100
AcDbEntity
  8
LAYER_1
 62
     7
100
AcDbVertex
100
AcDb2dVertex
 10
625.722358
 20
262.589657
 30
0.0
  0
SEQEND
  5
119
100
AcDbEntity
  8
LAYER_1
 62
     7
  0
SPLINE
  5
113
100
AcDbEntity
  8
LAYER_1
 62
     7
100
AcDbSpline
210
0.0
220
0.0
230
1.0
 70
     8
 71
     3
 72
    92
 73
    88
 74
     0
 42
0.00000001
 43
0.00000001
 40
0.0
 40
0.0
 40
0.0
 40
0.0
 40
1.0
 40
1.0
 40
1.0
 40
2.0
 40
2.0
 40
2.0
 40
3.0
 40
3.0
 40
3.0
 40
4.0
 40
4.0
 40
4.0
 40
5.0
 40
5.0
 40
5.0
 40
6.0
 40
6.0
 40
6.0
 40
7.0
 40
7.0
 40
7.0
 40
8.0
 40
8.0
 40
8.0
 40
9.0
 40
9.0
 40
9.0
 40
10.0
 40
10.0
 40
10.0
 40
11.0
 40
11.0
 40
11.0
 40
12.0
 40
12.0
 40
12.0
 40
13.0
 40
13.0
 40
13.0
 40
14.0
 40
14.0
 40
14.0
 40
15.0
 40
15.0
 40
15.0
 40
16.0
 40
16.0
 40
16.0
 40
17.0
 40
17.0
 40
17.0
 40
18.0
 40
18.0
 40
18.0
 40
19.0
 40
19.0
 40
19.0
 40
20.0
 40
20.0
 40
20.0
 40
21.0
 40
21.0
 40
21.0
 40
22.0
 40
22.0
 40
22.0
 40
23.0
 40
23.0
 40
23.0
 40
24.0
 40
24.0
 40
24.0
 40
25.0
 40
25.0
 40
25.0
 40
26.0
 40
26.0
 40
26.0
 40
27.0
 40
27.0
 40
27.0
 40
28.0
 40
28.0
 40
28.0
 40
29.0
 40
29.0
 40
29.0
 40
29.0
 10
624.14519314236111
 20
249.98818630642359
 30
0.0
 10
624.14519314236111
 20
249.98818630642359
 30
0.0
 10
621.01911349826378
 20
250.37196994357637
 30
0.0
 10
621.01911349826378
 20
250.37196994357637
 30
0.0
 10
619.26831597222213
 20
250.58694390190971
 30
0.0
 10
617.62638346354163
 20
249.82247721354165
 30
0.0
 10
616.63212890624993
 20
248.51127387152775
 30
0.0
 10
616.63212890624993
 20
248.51127387152775
 30
0.0
 10
609.54350043402769
 20
248.51127387152775
 30
0.0
 10
609.54350043402769
 20
248.51127387152775
 30
0.0
 10
609.54350043402769
 20
248.51127387152775
 30
0.0
 10
610.51915147569434
 20
262.46666666666664
 30
0.0
 10
610.51915147569434
 20
262.46666666666664
 30
0.0
 10
610.70311957465276
 20
265.09734157986111
 30
0.0
 10
608.71943359374995
 20
267.3793728298611
 30
0.0
 10
606.08875868055554
 20
267.5633409288194
 30
0.0
 10
606.08875868055554
 20
267.5633409288194
 30
0.0
 10
602.94683159722217
 20
267.78279351128469
 30
0.0
 10
602.94683159722217
 20
267.78279351128469
 30
0.0
 10
600.59176432291656
 20
267.94746907552081
 30
0.0
 10
598.52126193576385
 20
266.37340494791664
 30
0.0
 10
597.98038194444439
 20
264.1544189453125
 30
0.0
 10
597.98038194444439
 20
264.1544189453125
 30
0.0
 10
588.81091579861106
 20
264.1544189453125
 30
0.0
 10
588.81091579861106
 20
264.1544189453125
 30
0.0
 10
588.81091579861106
 20
264.1544189453125
 30
0.0
 10
588.81091579861106
 20
266.72377115885416
 30
0.0
 10
588.81091579861106
 20
266.72377115885416
 30
0.0
 10
588.81091579861106
 20
269.36099175347221
 30
0.0
 10
586.67357855902776
 20
271.49901801215276
 30
0.0
 10
584.03601345486106
 20
271.49901801215276
 30
0.0
 10
584.03601345486106
 20
271.49901801215276
 30
0.0
 10
580.88650716145833
 20
271.49901801215276
 30
0.0
 10
580.88650716145833
 20
271.49901801215276
 30
0.0
 10
578.24894205729163
 20
271.49901801215276
 30
0.0
 10
576.11091579861102
 20
269.36099175347221
 30
0.0
 10
576.11091579861102
 20
266.72377115885416
 30
0.0
 10
576.11091579861102
 20
266.72377115885416
 30
0.0
 10
576.11091579861102
 20
264.1544189453125
 30
0.0
 10
576.11091579861102
 20
264.1544189453125
 30
0.0
 10
576.11091579861102
 20
264.1544189453125
 30
0.0
 10
566.56214463975687
 20
264.1544189453125
 30
0.0
 10
566.56214463975687
 20
264.1544189453125
 30
0.0
 10
566.56214463975687
 20
264.1544189453125
 30
0.0
 10
566.42675238715276
 20
265.25684950086804
 30
0.0
 10
566.42675238715276
 20
265.25684950086804
 30
0.0
 10
566.10498046875
 20
267.87443305121525
 30
0.0
 10
563.72269694010413
 20
269.7358181423611
 30
0.0
 10
561.10476888020833
 20
269.41439073350693
 30
0.0
 10
561.10476888020833
 20
269.41439073350693
 30
0.0
 10
557.97903374565965
 20
269.03060709635412
 30
0.0
 10
557.97903374565965
 20
269.03060709635412
 30
0.0
 10
555.36110568576385
 20
268.70917968749995
 30
0.0
 10
553.499720594618
 20
266.32655164930554
 30
0.0
 10
553.82114800347222
 20
263.70896809895834
 30
0.0
 10
553.82114800347222
 20
263.70896809895834
 30
0.0
 10
555.67943250868052
 20
248.57397460937497
 30
0.0
 10
555.67943250868052
 20
248.57397460937497
 30
0.0
 10
555.67943250868052
 20
248.57397460937497
 30
0.0
 10
558.4444661458333
 20
226.05407443576388
 30
0.0
 10
558.4444661458333
 20
226.05407443576388
 30
0.0
 10
563.56318901909719
 20
225.83427734374999
 30
0.0
 10
567.64562717013882
 20
221.61679144965277
 30
0.0
 10
567.64562717013882
 20
216.44398057725692
 30
0.0
 10
567.64562717013882
 20
216.44398057725692
 30
0.0
 10
567.64562717013882
 20
193.71875271267359
 30
0.0
 10
567.64562717013882
 20
193.71875271267359
 30
0.0
 10
567.64562717013882
 20
193.71875271267359
 30
0.0
 10
611.44863823784715
 20
193.71875271267359
 30
0.0
 10
611.44863823784715
 20
193.71875271267359
 30
0.0
 10
617.52509765624995
 20
193.71875271267359
 30
0.0
 10
622.53840060763878
 20
198.25525444878471
 30
0.0
 10
623.29563259548604
 20
204.12569715711803
 30
0.0
 10
623.29563259548604
 20
204.12569715711803
 30
0.0
 10
623.32457139756934
 20
204.12569715711803
 30
0.0
 10
623.32457139756934
 20
204.12569715711803
 30
0.0
 10
623.32457139756934
 20
204.12569715711803
 30
0.0
 10
626.37072482638882
 20
228.93451877170136
 30
0.0
 10
626.37072482638882
 20
228.93451877170136
 30
0.0
 10
626.37072482638882
 20
228.93486328124999
 30
0.0
 10
626.37072482638882
 20
228.93486328124999
 30
0.0
 10
626.37072482638882
 20
228.93520779079859
 30
0.0
 10
626.37072482638882
 20
228.93520779079859
 30
0.0
 10
628.30273437499989
 20
244.66654730902775
 30
0.0
 10
628.30273437499989
 20
244.66654730902775
 30
0.0
 10
628.62381727430545
 20
247.28413085937498
 30
0.0
 10
626.76277669270826
 20
249.66675889756942
 30
0.0
 10
624.14519314236111
 20
249.98818630642359
 30
0.0
  0
POLYLINE
  5
10D
100
AcDbEntity
  8
LAYER_1
 62
     7
100
AcDb2dPolyline
 66
     1
 10
0.0
 20
0.0
 30
0.0
 70
     1
  0
VERTEX
  5
10E
100
AcDbEntity
  8
LAYER_1
 62
     7
100
AcDbVertex
100
AcDb2dVertex
 10
573.995627
 20
196.124118
 30
0.0
  0
VERTEX
  5
10F
100
AcDbEntity
  8
LAYER_1
 62
     7
100
AcDbVertex
100
AcDb2dVertex
 10
570.820627
 20
196.124118
 30
0.0
  0
VERTEX
  5
110
100
AcDbEntity
  8
LAYER_1
 62
     7
100
AcDbVertex
100
AcDb2dVertex
 10
570.820627
 20
216.443981
 30
0.0
  0
VERTEX
  5
111
100
AcDbEntity
  8
LAYER_1
 62
     7
100
AcDbVertex
100
AcDb2dVertex
 10
573.995627
 20
216.443981
 30
0.0
  0
SEQEND
  5
112
100
AcDbEntity
  8
LAYER_1
 62
     7
  0
MTEXT
  5
10C
100
AcDbEntity
  8
LAYER_1
 62
     7
100
AcDbMText
 10
409.891777
 20
673.365531
 30
0.0
 40
7.75
 41
0.0
 71
     1
 72
     2
  1
\fMyriad Roman|b0|i0;Top-down view
  7
STD
210
0.0
220
0.0
230
1.0
 11
1.000001
 21
0.0
 31
0.0
 73
     1
 44
1.0
  0
MTEXT
  5
10B
100
AcDbEntity
  8
LAYER_1
 62
     7
100
AcDbMText
 10
266.528606
 20
673.365531
 30
0.0
 40
7.75
 41
0.0
 71
     1
 72
     2
  1
\fMyriad Roman|b0|i0;Profile view
  7
STD
210
0.0
220
0.0
230
1.0
 11
1.000001
 21
0.0
 31
0.0
 73
     1
 44
1.0
  0
INSERT
  5
106
100
AcDbEntity
  8
LAYER_1
 62
     7
100
AcDbBlockReference
  2
AI9-BLK34
 10
648.710102
 20
125.124146
 30
0.0
  0
INSERT
  5
100
100
AcDbEntity
  8
LAYER_1
 62
     7
100
AcDbBlockReference
  2
AI9-BLK33
 10
631.147694
 20
125.124146
 30
0.0
  0
INSERT
  5
F9
100
AcDbEntity
  8
LAYER_1
 62
     7
100
AcDbBlockReference
  2
AI9-BLK32
 10
631.230549
 20
86.491706
 30
0.0
  0
INSERT
  5
F2
100
AcDbEntity
  8
LAYER_1
 62
     7
100
AcDbBlockReference
  2
AI9-BLK31
 10
737.729475
 20
82.56068
 30
0.0
  0
INSERT
  5
EB
100
AcDbEntity
  8
LAYER_1
 62
     7
100
AcDbBlockReference
  2
AI9-BLK30
 10
719.503714
 20
82.510898
 30
0.0
  0
INSERT
  5
E5
100
AcDbEntity
  8
LAYER_1
 62
     7
100
AcDbBlockReference
  2
AI9-BLK29
 10
774.854513
 20
124.650445
 30
0.0
  0
INSERT
  5
DF
100
AcDbEntity
  8
LAYER_1
 62
     7
100
AcDbBlockReference
  2
AI9-BLK28
 10
792.541288
 20
124.650445
 30
0.0
  0
INSERT
  5
D8
100
AcDbEntity
  8
LAYER_1
 62
     7
100
AcDbBlockReference
  2
AI9-BLK27
 10
702.31751
 20
92.623631
 30
0.0
  0
INSERT
  5
D1
100
AcDbEntity
  8
LAYER_1
 62
     7
100
AcDbBlockReference
  2
AI9-BLK26
 10
666.565343
 20
40.63249
 30
0.0
  0
INSERT
  5
CA
100
AcDbEntity
  8
LAYER_1
 62
     7
100
AcDbBlockReference
  2
AI9-BLK25
 10
683.498676
 20
40.63249
 30
0.0
  0
INSERT
  5
C4
100
AcDbEntity
  8
LAYER_1
 62
     7
100
AcDbBlockReference
  2
AI9-BLK24
 10
702.317855
 20
125.061445
 30
0.0
  0
INSERT
  5
BE
100
AcDbEntity
  8
LAYER_1
 62
     7
100
AcDbBlockReference
  2
AI9-BLK23
 10
719.439979
 20
125.061445
 30
0.0
  0
INSERT
  5
B7
100
AcDbEntity
  8
LAYER_1
 62
     7
100
AcDbBlockReference
  2
AI9-BLK22
 10
666.661806
 20
88.456961
 30
0.0
  0
INSERT
  5
B0
100
AcDbEntity
  8
LAYER_1
 62
     7
100
AcDbBlockReference
  2
AI9-BLK21
 10
793.001036
 20
81.048283
 30
0.0
  0
INSERT
  5
A9
100
AcDbEntity
  8
LAYER_1
 62
     7
100
AcDbBlockReference
  2
AI9-BLK20
 10
811.345481
 20
81.048283
 30
0.0
  0
INSERT
  5
A3
100
AcDbEntity
  8
LAYER_1
 62
     7
100
AcDbBlockReference
  2
AI9-BLK19
 10
684.963531
 20
124.714524
 30
0.0
  0
INSERT
  5
9D
100
AcDbEntity
  8
LAYER_1
 62
     7
100
AcDbBlockReference
  2
AI9-BLK18
 10
666.661806
 20
124.714524
 30
0.0
  0
INSERT
  5
96
100
AcDbEntity
  8
LAYER_1
 62
     7
100
AcDbBlockReference
  2
AI9-BLK17
 10
648.743864
 20
91.311567
 30
0.0
  0
INSERT
  5
8F
100
AcDbEntity
  8
LAYER_1
 62
     7
100
AcDbBlockReference
  2
AI9-BLK16
 10
755.849816
 20
80.565625
 30
0.0
  0
INSERT
  5
89
100
AcDbEntity
  8
LAYER_1
 62
     7
100
AcDbBlockReference
  2
AI9-BLK15
 10
737.691406
 20
125.144299
 30
0.0
  0
INSERT
  5
83
100
AcDbEntity
  8
LAYER_1
 62
     7
100
AcDbBlockReference
  2
AI9-BLK14
 10
755.849816
 20
125.144299
 30
0.0
  0
INSERT
  5
7C
100
AcDbEntity
  8
LAYER_1
 62
     7
100
AcDbBlockReference
  2
AI9-BLK13
 10
684.963531
 20
88.296936
 30
0.0
  0
INSERT
  5
75
100
AcDbEntity
  8
LAYER_1
 62
     7
100
AcDbBlockReference
  2
AI9-BLK12
 10
631.287565
 20
33.944354
 30
0.0
  0
INSERT
  5
6E
100
AcDbEntity
  8
LAYER_1
 62
     7
100
AcDbBlockReference
  2
AI9-BLK11
 10
648.78555
 20
33.944354
 30
0.0
  0
INSERT
  5
67
100
AcDbEntity
  8
LAYER_1
 62
     7
100
AcDbBlockReference
  2
AI9-BLK10
 10
774.854685
 20
80.565625
 30
0.0
  0
INSERT
  5
61
100
AcDbEntity
  8
LAYER_1
 62
     7
100
AcDbBlockReference
  2
AI9-BLK9
 10
703.290405
 20
15.38304
 30
0.0
  0
INSERT
  5
5B
100
AcDbEntity
  8
LAYER_1
 62
     7
100
AcDbBlockReference
  2
AI9-BLK8
 10
726.194434
 20
15.38304
 30
0.0
  0
INSERT
  5
55
100
AcDbEntity
  8
LAYER_1
 62
     7
100
AcDbBlockReference
  2
AI9-BLK7
 10
749.016813
 20
15.38304
 30
0.0
  0
INSERT
  5
4F
100
AcDbEntity
  8
LAYER_1
 62
     7
100
AcDbBlockReference
  2
AI9-BLK6
 10
706.246297
 20
41.545095
 30
0.0
  0
INSERT
  5
49
100
AcDbEntity
  8
LAYER_1
 62
     7
100
AcDbBlockReference
  2
AI9-BLK5
 10
735.798671
 20
41.544579
 30
0.0
  0
INSERT
  5
43
100
AcDbEntity
  8
LAYER_1
 62
     7
100
AcDbBlockReference
  2
AI9-BLK4
 10
771.91688
 20
28.97222
 30
0.0
  0
INSERT
  5
3D
100
AcDbEntity
  8
LAYER_1
 62
     7
100
AcDbBlockReference
  2
AI9-BLK3
 10
795.56746
 20
28.97222
 30
0.0
  0
INSERT
  5
37
100
AcDbEntity
  8
LAYER_1
 62
     7
100
AcDbBlockReference
  2
AI9-BLK2
 10
819.556349
 20
28.97222
 30
0.0
  0
INSERT
  5
31
100
AcDbEntity
  8
LAYER_1
 62
     7
100
AcDbBlockReference
  2
AI9-BLK1
 10
844.956349
 20
28.97222
 30
0.0
  0
SPLINE
  5
2F
100
AcDbEntity
  8
LAYER_1
 62
     7
100
AcDbSpline
210
0.0
220
0.0
230
1.0
 70
     8
 71
     3
 72
    92
 73
    88
 74
     0
 42
0.00000001
 43
0.00000001
 40
0.0
 40
0.0
 40
0.0
 40
0.0
 40
1.0
 40
1.0
 40
1.0
 40
2.0
 40
2.0
 40
2.0
 40
3.0
 40
3.0
 40
3.0
 40
4.0
 40
4.0
 40
4.0
 40
5.0
 40
5.0
 40
5.0
 40
6.0
 40
6.0
 40
6.0
 40
7.0
 40
7.0
 40
7.0
 40
8.0
 40
8.0
 40
8.0
 40
9.0
 40
9.0
 40
9.0
 40
10.0
 40
10.0
 40
10.0
 40
11.0
 40
11.0
 40
11.0
 40
12.0
 40
12.0
 40
12.0
 40
13.0
 40
13.0
 40
13.0
 40
14.0
 40
14.0
 40
14.0
 40
15.0
 40
15.0
 40
15.0
 40
16.0
 40
16.0
 40
16.0
 40
17.0
 40
17.0
 40
17.0
 40
18.0
 40
18.0
 40
18.0
 40
19.0
 40
19.0
 40
19.0
 40
20.0
 40
20.0
 40
20.0
 40
21.0
 40
21.0
 40
21.0
 40
22.0
 40
22.0
 40
22.0
 40
23.0
 40
23.0
 40
23.0
 40
24.0
 40
24.0
 40
24.0
 40
25.0
 40
25.0
 40
25.0
 40
26.0
 40
26.0
 40
26.0
 40
27.0
 40
27.0
 40
27.0
 40
28.0
 40
28.0
 40
28.0
 40
29.0
 40
29.0
 40
29.0
 40
29.0
 10
895.80509711371519
 20
115.96639268663193
 30
0.0
 10
895.80509711371519
 20
115.96639268663193
 30
0.0
 10
892.67901746961797
 20
116.35017632378471
 30
0.0
 10
892.67901746961797
 20
116.35017632378471
 30
0.0
 10
890.92856445312486
 20
116.56515028211804
 30
0.0
 10
889.28628743489571
 20
115.80102810329861
 30
0.0
 10
888.29237738715267
 20
114.48982476128471
 30
0.0
 10
888.29237738715267
 20
114.48982476128471
 30
0.0
 10
881.20340440538189
 20
114.48982476128471
 30
0.0
 10
881.20340440538189
 20
114.48982476128471
 30
0.0
 10
881.20340440538189
 20
114.48982476128471
 30
0.0
 10
882.17939995659719
 20
128.44521755642359
 30
0.0
 10
882.17939995659719
 20
128.44521755642359
 30
0.0
 10
882.3633680555555
 20
131.07589246961805
 30
0.0
 10
880.37968207465269
 20
133.35792371961804
 30
0.0
 10
877.74866265190963
 20
133.54189181857637
 30
0.0
 10
877.74866265190963
 20
133.54189181857637
 30
0.0
 10
874.60708007812491
 20
133.76099989149304
 30
0.0
 10
874.60708007812491
 20
133.76099989149304
 30
0.0
 10
872.25201280381941
 20
133.92567545572916
 30
0.0
 10
870.18151041666658
 20
132.35195583767359
 30
0.0
 10
869.64028591579859
 20
130.13262532552082
 30
0.0
 10
869.64028591579859
 20
130.13262532552082
 30
0.0
 10
860.4711642795138
 20
130.13262532552082
 30
0.0
 10
860.4711642795138
 20
130.13262532552082
 30
0.0
 10
860.4711642795138
 20
130.13262532552082
 30
0.0
 10
860.4711642795138
 20
132.70197753906248
 30
0.0
 10
860.4711642795138
 20
132.70197753906248
 30
0.0
 10
860.4711642795138
 20
135.33954264322915
 30
0.0
 10
858.33348253038184
 20
137.47756890190971
 30
0.0
 10
855.6962619357638
 20
137.47756890190971
 30
0.0
 10
855.6962619357638
 20
137.47756890190971
 30
0.0
 10
852.54675564236106
 20
137.47756890190971
 30
0.0
 10
852.54675564236106
 20
137.47756890190971
 30
0.0
 10
849.90919053819437
 20
137.47756890190971
 30
0.0
 10
847.77116427951375
 20
135.33954264322915
 30
0.0
 10
847.77116427951375
 20
132.70197753906248
 30
0.0
 10
847.77116427951375
 20
132.70197753906248
 30
0.0
 10
847.77116427951375
 20
130.13262532552082
 30
0.0
 10
847.77116427951375
 20
130.13262532552082
 30
0.0
 10
847.77116427951375
 20
130.13262532552082
 30
0.0
 10
838.2223931206596
 20
130.13262532552082
 30
0.0
 10
838.2223931206596
 20
130.13262532552082
 30
0.0
 10
838.2223931206596
 20
130.13262532552082
 30
0.0
 10
838.0870008680555
 20
131.23505588107636
 30
0.0
 10
838.0870008680555
 20
131.23505588107636
 30
0.0
 10
837.76522894965274
 20
133.8526394314236
 30
0.0
 10
835.38294542100687
 20
135.71436903211804
 30
0.0
 10
832.76501736111106
 20
135.39259711371525
 30
0.0
 10
832.76501736111106
 20
135.39259711371525
 30
0.0
 10
829.63928222656239
 20
135.00881347656249
 30
0.0
 10
829.63928222656239
 20
135.00881347656249
 30
0.0
 10
827.02135416666658
 20
134.68773057725693
 30
0.0
 10
825.15996907552073
 20
132.30510253906249
 30
0.0
 10
825.4810519748263
 20
129.68751898871525
 30
0.0
 10
825.4810519748263
 20
129.68751898871525
 30
0.0
 10
827.33968098958326
 20
114.55252549913193
 30
0.0
 10
827.33968098958326
 20
114.55252549913193
 30
0.0
 10
827.33968098958326
 20
114.55252549913193
 30
0.0
 10
830.10471462673604
 20
92.032625325520826
 30
0.0
 10
830.10471462673604
 20
92.032625325520826
 30
0.0
 10
835.22343749999993
 20
91.812828233506934
 30
0.0
 10
839.30587565104156
 20
87.595342339409711
 30
0.0
 10
839.30587565104156
 20
82.422186957465271
 30
0.0
 10
839.30587565104156
 20
82.422186957465271
 30
0.0
 10
839.30587565104156
 20
59.69695909288194
 30
0.0
 10
839.30587565104156
 20
59.69695909288194
 30
0.0
 10
839.30587565104156
 20
59.69695909288194
 30
0.0
 10
883.10854220920135
 20
59.69695909288194
 30
0.0
 10
883.10854220920135
 20
59.69695909288194
 30
0.0
 10
889.18500162760404
 20
59.69695909288194
 30
0.0
 10
894.19830457899297
 20
64.233460828993046
 30
0.0
 10
894.95553656684024
 20
70.103903537326389
 30
0.0
 10
894.95553656684024
 20
70.103903537326389
 30
0.0
 10
894.98481987847219
 20
70.103903537326389
 30
0.0
 10
894.98481987847219
 20
70.103903537326389
 30
0.0
 10
894.98481987847219
 20
70.103903537326389
 30
0.0
 10
898.03097330729156
 20
94.912725151909711
 30
0.0
 10
898.03097330729156
 20
94.912725151909711
 30
0.0
 10
898.03097330729156
 20
94.913414171006934
 30
0.0
 10
898.03097330729156
 20
94.913414171006934
 30
0.0
 10
898.03097330729156
 20
94.913414171006934
 30
0.0
 10
898.03097330729156
 20
94.913414171006934
 30
0.0
 10
899.96263834635408
 20
110.64509819878471
 30
0.0
 10
899.96263834635408
 20
110.64509819878471
 30
0.0
 10
900.2840657552083
 20
113.26268174913193
 30
0.0
 10
898.42302517361099
 20
115.64530978732638
 30
0.0
 10
895.80509711371519
 20
115.96639268663193
 30
0.0
  0
POLYLINE
  5
29
100
AcDbEntity
  8
LAYER_1
 62
     7
100
AcDb2dPolyline
 66
     1
 10
0.0
 20
0.0
 30
0.0
 70
     1
  0
VERTEX
  5
2A
100
AcDbEntity
  8
LAYER_1
 62
     7
100
AcDbVertex
100
AcDb2dVertex
 10
845.655876
 20
62.102325
 30
0.0
  0
VERTEX
  5
2B
100
AcDbEntity
  8
LAYER_1
 62
     7
100
AcDbVertex
100
AcDb2dVertex
 10
842.480876
 20
62.102325
 30
0.0
  0
VERTEX
  5
2C
100
AcDbEntity
  8
LAYER_1
 62
     7
100
AcDbVertex
100
AcDb2dVertex
 10
842.480876
 20
82.422187
 30
0.0
  0
VERTEX
  5
2D
100
AcDbEntity
  8
LAYER_1
 62
     7
100
AcDbVertex
100
AcDb2dVertex
 10
845.655876
 20
82.422187
 30
0.0
  0
SEQEND
  5
2E
100
AcDbEntity
  8
LAYER_1
 62
     7
  0
ENDSEC
  0
SECTION
  2
OBJECTS
  0
DICTIONARY
  5
19
100
AcDbDictionary
280
     0
281
     1
  3
ACAD_GROUP
350
1A
  3
ACAD_MLINESTYLE
350
1B
  3
ACAD_LAYOUT
350
1E
  3
ACAD_PLOTSETTINGS
350
22
  3
ACAD_PLOTSTYLENAME
350
1F
  3
ACAD_WIPEOUT_VARS
350
23
  0
DICTIONARY
  5
1A
102
{ACAD_REACTORS
330
19
102
}
100
AcDbDictionary
280
     0
281
     1
  0
DICTIONARY
  5
1B
102
{ACAD_REACTORS
330
19
102
}
100
AcDbDictionary
280
     0
281
     1
  3
Standard
350
1C
  0
MLINESTYLE
  5
1C
102
{ACAD_REACTORS
330
1B
102
}
100
AcDbMlineStyle
  2
Standard
 70
     0
  3

 62
     0
 51
90.0
 52
90.0
 71
     2
 49
0.5
 62
   256
  6
BYLAYER
 49
-0.5
 62
   256
  6
BYLAYER
  0
ACDBDICTIONARYWDFLT
  5
1F
102
{ACAD_REACTORS
330
19
102
}
100
AcDbDictionary
281
     1
  3
Normal
350
1D
100
AcDbDictionaryWithDefault
340
1D
  0
ACDBPLACEHOLDER
  5
1D
102
{ACAD_REACTORS
330
1F
102
}
  0
LAYOUT
  5
20
102
{ACAD_REACTORS
330
1E
102
}
100
AcDbPlotSettings
  1

  2

  4

  6

 40
0.0
 41
0.0
 42
0.0
 43
0.0
 44
0.0
 45
0.0
 46
0.0
 47
0.0
 48
0.0
 49
0.0
140
0.0
141
0.0
142
1.0
143
1.0
 70
  1024
 72
     0
 73
     0
 74
     0
  7

 75
     0
147
1.0
148
0.0
149
0.0
100
AcDbLayout
  1
Model
 70
     0
 71
     0
 10
0.0
 20
0.0
 11
0.0
 21
0.0
 12
0.0
 22
0.0
 32
0.0
 14
0.0
 24
0.0
 34
0.0
 15
0.0
 25
0.0
 35
0.0
146
0.0
 13
0.0
 23
0.0
 33
0.0
 16
0.0
 26
0.0
 36
0.0
 17
0.0
 27
0.0
 37
0.0
 76
     0
330
A
331
0
345
0
346
0
  0
LAYOUT
  5
21
102
{ACAD_REACTORS
330
1E
102
}
100
AcDbPlotSettings
  1

  2

  4

  6

 40
0.0
 41
0.0
 42
0.0
 43
0.0
 44
0.0
 45
0.0
 46
0.0
 47
0.0
 48
0.0
 49
0.0
140
0.0
141
0.0
142
1.0
143
1.0
 70
     0
 72
     0
 73
     0
 74
     0
  7

 75
     0
147
1.0
148
0.0
149
0.0
100
AcDbLayout
  1
Layout1
 70
     0
 71
     0
 10
0.0
 20
0.0
 11
0.0
 21
0.0
 12
0.0
 22
0.0
 32
0.0
 14
0.0
 24
0.0
 34
0.0
 15
0.0
 25
0.0
 35
0.0
146
0.0
 13
0.0
 23
0.0
 33
0.0
 16
0.0
 26
0.0
 36
0.0
 17
0.0
 27
0.0
 37
0.0
 76
     0
330
B
331
0
345
0
346
0
  0
DICTIONARY
  5
1E
102
{ACAD_REACTORS
330
19
102
}
100
AcDbDictionary
280
     0
281
     1
  3
Layout1
350
21
  3
Model
350
20
  0
DICTIONARY
  5
22
102
{ACAD_REACTORS
330
19
102
}
100
AcDbDictionary
280
     0
281
     1
  0
WIPEOUTVARIABLES
  5
23
100
AcDbWipeoutVariables
 70
     1
  0
ENDSEC
  0
EOF
